Poprostu miłośc (solo) RH+

Tekst piosenki

  • Tekst piosenki David
    3 ulubione
[E1------------------------------------------------------------------------]B2--------------------------------8-10-8-10-8------8-10--8-10-8-8-8---8-10
G3-5-5-5/(7)-7-7-7/(9)-9-9-9/(10)-------------9-10------------------------
D4------------------------------------------------------------------------
A5------------------------------------------------------------------------
E6------------------------------------------------------------------------

E1------------------------------------------------------------------------
[B2------------------------------------------------------------------------]G3-9-9-9/(7)-5--7-5-7b9-5-7-5-5-------5h7-5-7-7b9-5-0-7-5-7---------------
D4--------------------------------5h7-------------------------------------
A5------------------------------------------------------------------------
E6------------------------------------------------------------------------

E1------------------------------------------------------------------------
[B2------------------------------------------------------------------------]G3-7---7b9-5---5-----5-----------5-7-5-7b9-5-0----------------------------
D4-----------7---7-7---7-7---5-7------------------------------------------
A5------------------------------------------------------------------------
E6------------------------------------------------------------------------

[E1------------------------------------------------------------------------]B2-15b17-15b17---15b17-13-15-13-15---13-15-15b17-15b17-15b17-15-13-13/----
G3------------------------------------------------------------------------
D4------------------------------------------------------------------------
A5------------------------------------------------------------------------
E6------------------------------------------------------------------------

E1------------------------------------------------------------------------
[B2------------------------------------------------------------------------]G3-13-13-12-10-12-12----------12--------------5-----5---------------------
D4-------------------10-12b13----12-12/---5-7---7-7---7-7-----------------
A5------------------------------------------------------------------------
E6------------------------------------------------------------------------

E1------------------------------------------------------------------------
[B2------------------------------------------------------------------------]G3-----5-7-5-7b9r7-5-7-5--------------------------------------------------
D4-5-7--------------------------------------------------------------------
A5------------------------------------------------------------------------
E6------------------------------------------------------------------------

dalej akordami: C5 G5 A5 F5

Oceń to opracowanie
Kontrybucje:
David
David
anonim
  • McK
    McK 11 lat temu

    e co ten nawias znaczy ? ;/

  • Dymek
    Dymek 12 lat temu

    Żeby sobie ulatwic poczatek bo dalej nie umie to moim zdaniem lepiej zaczac tak:
    E1------------------------------------------------------------------------
    B2-------------------------555-6-8-10-8-10-8------5-6--8-10-8-10-8-8--6--5
    G3-5-5-5/(7)-7-7-7/---------------------------------------------------------------------7----5
    D4------------------------------------------------------------------------
    A5------------------------------------------------------------------------
    E6------------------------------------------------------------------------

  • David
    David 13 lat temu

    zamieściłem tego taba bo dużo osób tego szuka :)