Unfaithful (intro) Rihanna

Tekst piosenki

  • Tekst piosenki damballa
    3 ulubione
e|------------------------------|---------------------------|
B|-----------0--1--3--1--0--1--0|-----------0--1--3--1--0--1|
G|--------2---------------------|--------2------------------|
D|-----2------------------------|-----2---------------------|
A|--0---------------------------|--0------------------------|
E|------------------------------|---------------------------|

e|------------------------------|---------------------------|
B|-----------0--1--3--1--0--1---|-----------0--1--0---------|
G|--------2--------------------2|--------2-----------2--1--2|And repeat!
D|-----3------------------------|-----3---------------------|
A|------------------------------|--3------------------------|
E|--1---------------------------|---------------------------|


Tips:

Put a capo on the 3rd fret if you want to play along with the song.

Listen carefully to the song, or try to play along, so that you can get the right rythm.


Oceń to opracowanie
Kontrybucje:
damballa
damballa
anonim
  • majda99
    jakos nie wyraźnie widac!! postarac się barzdiej~!!!!!!!!
    · Zgłoś · 15 lat temu
  • Zapalka_14
    Wszystko "pasi". Po prostu ta melodia jest na początku teledysku.
    · Zgłoś · 16 lat temu
  • anonim
    zawisz
    Cos tu nie pasi ale ok, to nie piosenka na gitare
    · Zgłoś · 16 lat temu
  • anonim
    laluś ppppp
    bardzo lubię Rihannę
    · Zgłoś · 17 lat temu