0
0

Idą ludzie The Bill

Tekst piosenki i chwyty na gitarę

  • Chwyty na gitarę bathory
    3 ulubione

E|-----------------------------------------------------------------
H|-----------------------------------------------------------------
G|-----------------------------------------------------------------
D|---------------------------------2-2-2-2-2-3-2-2-2-2-2-3
A|2-2-2-2-2-3-2-2-2-2-2-3---------------------------------
E|-----------------------------------------------------------------

H C H C E F E F


Idą ludzie, do kościoła
Będą chylić swoje czoła
Będą prosić o pieniądze
Aby bóg spełnił ich chciwe żądze
Będą prosić o pieniądze
Aby bóg spełnił ich chciwe żądze


Siedzi ksiądz w konfesjonale
On ma bardzo trudne zadanie
On daje ludziom rozgrzeszenie aby mieli
Aby mieli, Aby mieli czyste sumienie
On daje ludziom rozgrzeszenie aby mieli
Aby mieli, Aby mieli czyste sumienie


Stoją panie wymalowane
Ładnie ubrane i uczesane
A obok stoją ich panowie
Jeszcze na kacu po sobocie
Dostojni mężowie i menele
Wszyscy spotkali się w kościele
Dostojni mężowie i menele
Wszyscy spotkali się w kościele
Dostojni mężowie i menele
Wszyscy spotkali się w kościele




Oceń to opracowanie
Kontrybucje:
bathory
bathory
anonim
  • bathory
    H C H C E F E F
    · Zgłoś · 13 lat temu
  • bathory
    D|---------------------------------2-2-2-2-2-3-2-2-2-2-2-3
    A|2-2-2-2-2-3-2-2-2-2-2-3------------------------
    · Zgłoś · 13 lat temu