Wakacyjny Konkurs Śpiewnikowy
Wakacyjny Konkurs Śpiewnikowy
Popraw Opracowanie Usuń
Transponuj
0

Don`t Let Go The Rasmus

Tekst piosenki

  • Tekst piosenki Chapter
    1 ulubiony
intro x2
e|-------------------------------------------|
b|-------------------------------------------|
g|-------------------------------------------|
d|-7-7-7-7-7-7-7-7-3-3-3-3--2-2-2-2----------|
a|-7-7-7-7-7-7-7-7-3-3-3-3--2-2-2-2----------|
e|-5-5-5-5-5-5-5-5-1-1-1-1--0-0-0-0----------|
1 zwrotka
e|-------------------------------------------|
b|-------------------------------------------|
g|-------------------------------------------|
d|-7-7-7-7-7-7-7-7-3-3-3-3--2-2-2-2----------|
a|-7-7-7-7-7-7-7-7-3-3-3-3--2-2-2-2----------|
e|-5-5-5-5-5-5-5-5-1-1-1-1--0-0-0-0----------|

|-------------------------------------------|
|-------------------------------------------|
|-------------------------------------------|
|-2-2-2-2-2-2-2-2--3-3-3-3-3-3-3-3----------|
|-2-2-2-2-2-2-2-2--3-3-3-3-3-3-3-3----------|
|-0-0-0-0-0-0-0-0--1-1-1-1-1-1-1-1----------|

|-------------------------------------------|
|-------------------------------------------|
|-------------------------------------------|
|-7-7-7-7-7-7-7-7-3-3-3-3--2-2-2-2----------|
|-7-7-7-7-7-7-7-7-3-3-3-3--2-2-2-2----------|
|-5-5-5-5-5-5-5-5-1-1-1-1--0-0-0-0----------|

|------------------------------------------------|
|------------------------------------------------|
|---------------------------------5--5--5--5-----|
|-2-2-2-2-2-2-2-2--3-3-3-3--5--5--5--5-----------|
|-2-2-2-2-2-2-2-2--3-3-3-3--3--3--3--3-----------|
|-0-0-0-0-0-0-0-0--1-1-1-1-(3)(3)(3)(3)----------|

refren

C             G
Don’t let go now

Am     (G)    F
Somebody is lying

tak samo druga zwrotka

teraz przejście zaczyna się słowami: Break the of emptiness…
|------------------------------------------|
|------------------------------------------|
|------------------5--5--5--5--5--5--5--5--|
|-7-7-7-7-7-7-7-7--5--5--5--5--5--5--5--5--|
|-7-7-7-7-7-7-7-7--3--3--3--3--3--3--3--3--|
|-5-5-5-5-5-5-5-5-(3)(3)(3)(3)(3)(3)(3)(3)-|

|----------------------------------|
|----------------------------------|
|----------------------------------|
|-3-3-3-3-3-3-3-3--2-2-2-2-2-2-2-2-|
|-3-3-3-3-3-3-3-3--2-2-2-2-2-2-2-2-|
|-1-1-1-1-1-1-1-1--0-0-0-0-0-0-0-0-|

|------------------------------------------|
|------------------------------------------|
|------------------5--5--5--5--5--5--5--5--|
|-7-7-7-7-7-7-7-7--5--5--5--5--5--5--5--5--|
|-7-7-7-7-7-7-7-7--3--3--3--3--3--3--3--3--|
|-5-5-5-5-5-5-5-5-(3)(3)(3)(3)(3)(3)(3)(3)-|

|----------------------------------|
|----------------------------------|
|----------------------------------|
|-3-3-3-3-3-3-3-3--2-2-2-2-2-2-2-2-|
|-3-3-3-3-3-3-3-3--2-2-2-2-2-2-2-2-|
|-1-1-1-1-1-1-1-1--0-0-0-0-0-0-0-0-|

|-----------------------------------|
|-----------------------------------|
|-----------------------------------|
|-7-7-7-7--5-5-5-5--3-3-3-3-3-3-3-3-|
|-7-7-7-7--5-5-5-5--3-3-3-3-3-3-3-3-|
|-5-5-5-5--3-3-3-3--1-1-1-1-1-1-1-1-|

|---------------------------------------------------|
|---------------------------------------------------|
|---------------------------------------------------|
|-7-7-7-7--5-5-5-5--3-3-3-3-3-3-3-3-3-3-3-3-3-3-3-3-|
|-7-7-7-7--5-5-5-5--3-3-3-3-3-3-3-3-3-3-3-3-3-3-3-3-|
|-5-5-5-5--3-3-3-3--1-1-1-1-1-1-1-1-1-1-1-1-1-1-1-1-|

potem jeszcze refren o 3 tony do góry

C,G,F
Oceń to opracowanie

Kontrybucje
Chapter

Wakacyjny Konkurs Śpiewnikowy

Pula nagród w konkursie ponad 10.000 zł!
Przysyłaj opracowania piosenek i zdobądź bony na zakupy w sklepie muzycznym.
Zapoznaj się z regulaminem konkursu.
anonim