0
0

Even Better Than the Real Thing U2

Tekst piosenki i chwyty na gitarę

  • Chwyty na gitarę s314ryt
    1 ulubiony
"Even Better Than the Real Thing"
-------------------------------

daniel.zigman@bialik.netaxis.qc.ca

Ok. A couple of mistakes were corrected. Most totably the slides on the
solo, one of the notes in the main riff and the first part of the bridge was
put onto the correct string (sorry this was my first TAB)
I'm still a bit rough on Riff 2 so I'd appreciate some help there.
I suggest a lot of delay and some distortion (especially at the beginning).

b=bend
r=release
/=slide up
\=slide down
Note: The intro is actually played on another guitar and it continues into
the middle of the first verse.

Intro: (8x) | Riff 1
E--------5-5-----|------------------------------------------
B----------------|------------------------------------------
G----------------|-----------6br----------------------------
D----------------|--------------------4--5--4---------------
A----------------|----------------5-------------------------
E--5-5-----------|------5-----------------------------------

-Riff 1-
Give Ame one more chance,Dsus4 and yD/Aou'll be satiAsfied
Give Dme two more chanceDsus4s you woDn't be Adenied

-Riff 2-

e----------10-10-|----10----10-10--|----10--10-10-9-9-9-9\7-|
B--8-8---8-------|-12----12--------|-10----10---------------|


Well myGadd9 heart is where it's always been
My hb7 ead is somewhere in between
GiveD me one more chaDsus4nce let me be yoDur loverA tonight

(Check it out)

-Riff 3-

e-12-12-12---10-9-7-|
B-10-10-10---8--7-5-|

YoAu're the rGeal thinDg, yAeah the Greal thingD 
YoAu're the rGeal thinDg
EvAen better than the rGeal thing D        A 

(Riff 1)
Give me one last chance and I'm gonna make you sing
Give me half a chance to ride on the waves that you bring
(Riff 2)
You're honey child to a swarm of bees
Gonna blow right through you like a breeze
Give me one last dance, we'll slide down the surface of things

(Riff 3)
You're the real thing, yeah the real thing
You're the real thing
Even better than the real thing

Solo:
B-6/10-8/10--/13-12\10-10-10---/8-5-3-5/10--/13-13-13-13-12-12-12-10-

e----------------------------------------------17--17--17--17-
B-/13-13-13-13/15-15-13-10---/15-15-15-13-15-17--17--17--17---

e--17-20-17-20-17-20-17-20-

Bridge:
e-/10-/8-8-8-7-8/10-10--/8-8-8-7-8-7-7\5--5-5-5-5-5-5-5-5-
B----------------------------------------8-8-8-8-8-8-8-8--
We'rDe free to fly thGe crimson sky
The sDun won't melt our wGings tonight
OAh noGw, hDere she comes

-Riff 3-
Take me higher, take me higher
Can you take me higher?
Will you take me higher?

You're the real thing, yeah the real thing
You're the real thing

Even better than the real thing
Even better than the real thing
Even better than the real thing.






"Even Better Than the Real Thing"
-------------------------------
tabbed by:mal11@cwns5.INS.CWRU.Edu

Heavy distortion recommended. :)

Intro: (Riff below is repeated during verses)
E--------5-5-----|------------------------------------------
B----------------|------------------------------------------
G----------------|-----------6/7\6--------------------------
D----------------|------------------5--4--------------------
A----------------|------------------------------------------
E--5-5-----------|------5-----------------------------------

Give me oAne more chance, andDsus4 you'lD/Al be satisfieAd
Give me tDwo more chances yoDsus4u won't Dbe deniAed
Well myGadd9 heart is where it's always been
My hb7 ead is somewhere in between
Give me Done more chance Dsus4let me be your lDover tonAight

(Check it out)

YoAu're the rGeal thinDg, yAeah the Greal thingD 
YoAu're the rGeal thinDg
EvAen better than the rGeal thing D        A 

Give me one last chance and I'm gonna make you sing
Give me half a chance to ride on the waves that you bring
You're honey child to a swarm of bees
Gonna blow right through you like a breeze
Give me one last dance, we'll slide down the surface of things

You're the real thing, yeah the real thing
You're the real thing
Even better than the real thing

U2 "Even Better Than the Real Thing" - SOLO
-------------------------------------------
steve palmer am560@freenet.carleton.ca

regular tuning


|-----------------8-8-8-7-5-5--------------10--10/12---10-----|
|-3/5/10---8/10----------------8/5-3-5/10-----------------10--|
|-------------------------------------------------------------|
|-------------------------------------------------------------|
|-------------------------------------------------------------|
|-------------------------------------------------------------|


|-8/10--10/12--8/5--------------------5----5----5----5--------|
|--------------------3-3-3-3-3-1-3-5----5----5----5----5------|
|-------------------------------------------------------------|
|-------------------------------------------------------------|
|-------------------------------------------------------------|
|-------------------------------------------------------------|


|-8-5----8-5----8-5----8-5------------------------------------|
|-----5------5------5------5----------------------------------|
|-------------------------------------------------------------|
|-------------------------------------------------------------|
|-------------------------------------------------------------|
|-------------------------------------------------------------|



We're frDee to fly the crGimson sky
The sDun won't melt our wGings tonight
OAh noGw, hDere she comes

Take me higher, take me higher
Can you take me higher?
Will you take me higher?

You're the real thing, yeah the real thing
You're the real thing

Even better than the real thing
Even better than the real thing
Even better than the real thing.


Oceń to opracowanie
Kontrybucje:
s314ryt
s314ryt
anonim