0
0

Until The End Of The World U2

Tekst piosenki i chwyty na gitarę

  • Chwyty na gitarę s314ryt
    1 ulubiony

Until The End Of The World (live)

Music by U2
Lyrics by Bono
Transcribed by Brandon Leniart

Here is a very simplistic version of "Until The End Of The World" live,
tuned down 1/2 step. I finally realized Edge is a pretty smart for putting a
capo on the 3rd fret, and playing it like he did on the studio version. He
plays the same chords, just 1/2 step down with a capo on the 3rd fret. I'll
also give the chords if you don't have a capo.

Intro (with distortion and delay):
1---x--x--x--x--x--x--x--x-------
2---x--x--x--x--x--x--x--x--/12--
3---x--x--x--x--x--x--x--x--/12--
4---x--x--x--x--x--x--x--x--/12--
5---x--x--x--x--x--x--x--x-------
6---x--x--x--x--x--x--x--x-------

Intro/chorus:
2---12--12--12--12--12--12--12--12--13--13--13--13--
3---12--12--12--12--12--12--12--12--12--12--12--12--
4---12--12--12--12--12--12--12--12--12--12--12--12--

Verse chords (with capo on 3rd fret): b D e

Pre-chorus chords: D A e G5 D/F# D A

Solo:

2---18--18--18--17--15--15--15--15\13--13\11--11\10--10\8--

2---8--6--6h8--8--8--8--6--8--8b10--8--6--8-- (twice)

2---11p10p8--10--10--10--10--10--11p10p8--10--10--10--10--

2---11p10p8--8--6h8--8--8--8--6--6--8--8--11p10p8--10--10--10--11p10p8--10/

Here's the chords if you don't have a capo:

Verse: d F g

Prechorus: F C g B F C

http://www.angelfire.com/va/battersea/index.html



Until the End of the World -Live
-----------------------------------------------

Tabbed by: Matt Means, LMJrBAE@aol.com

Tab guide:

B : string bend
/ : slide up
\ : slide down
^ : hammer on\pull off
~~: vibrato


Standard tuning with capo on 4th fret
( Note: for less confusion all open notes are indicated as 0 and not 4 )


Intro, with heavy funky distortion.( This probably won't sound much like it
unless you have the right effect )

[-------------------------------------------------------------------------]
[-0-5^0-5^0----11B----0-5^0-0----11B----0-5^0-0-------9B------/9-----/7---]
[-----------------------------------------------6-------------------------]
[-------------------------------------------------------------------------]
[-------------------------------------------------------------------------]
[-------------------------------------------------------------------------]

Next Edge does a nice muting rythm. ( just listen to the song )

Rythm figure 1 part A (Play 3X
[-----------------------------------------------------------]
[--11---12---11---12---11---11---11----11^12^11^12^11-------]
[--11---11---11---11---11---11---11----11-11-11-11-11-------]
[--11---11---11---11---11---11---11----11-11-11-11-11-------]
[--0-----9---11---10---0----0----0-----0^-9^-0^-9^-0--------]
[--0----10---0-----9---0----0----0-----0^10^-0^-10^0--------]

Rythm figure 1 part B ( instantly begin this after Part A)
[--------------------------------------------]
[--------------------------------------------]
[----9-------9\7------7------7\6---6----6----]
[----9-------9\7------7------7\6---6----6----]
[----9-------9\7------7------7\6---6-- -6----]
[---10------10\8------8------8\7---7----7----]

Right after you hit the last cord for R1-B, jump into this great picking
melody. (remember this is with a capo on 4th fret)

[-----------------I--------0---------I-------5--------8--6-6--8-]
[------------5----I-------------5----I------------7-------------]
[---6---------6---I---0-----------0--I---6----------------------]
[-------6---------I------------------I-0---0----0---0-----------]
[-0---0---0----0--I-6---6-----6------I--------------------------]
[-----------------I------------------I--------------------------]

Repeat above figure again

[-----------------I----------------I-----------5--0--------]
[-6--8--6---------I----7--5--------I------7------5--5-7-5--]
[----------0------I--0-------6-----I----6---6--------------]
[-------------0---I--------------0-I--0--------------------]
[-----------------I----------------I-----------------------]
[-----------------I----------------I-----------------------]

~~~~~~~~~~~~
[----------------------------------------]
[-------5--7--5--------------------------]
[----0------------0----6--6---7--7--9/---]
[-0-----------------------=--------------]
[----------------------------------------]
[----------------------------------------]

The last few notes above lead into rythm figure 1-A which is played 3X,
and then rythm figure 1-B. Next is Rythm figure 2, shown below.

[-----I-Re1-----------------------------------------------------]
[-----I---------------------------------------------------------]
[--0--I--6--6--6--6--6--6--6/8--8/9---9---9---9---9---9----9/---]
[--0--I--6--6--6--6--6--6--6/8--8/9---9---9---9---9---9----9/---]
[--0--I--6--6--6--6--6--6--6/8--8/9---9---9---9---9---9----9/---]
[--0--I--6--7--7--7--7--7--7/9--9/10--10--10--10--10--10--10/---]


[------------------------------------------------------------------------]
[------------------------------------------------------------------------]
[--11---11/13--13--13---13\11---11---11\9---9----9/11---11/13---13---13--]
[--11---11/13--13--13---13\11---11---11\9---9----9/11---11/13---13---13--]
[--11---11/13--13--13---13\11---11---11\9---9----9/11---11/13---13---13--]
[--12---12/14--14--14---14\12---12---12\10--10---10/12--12/14---14---14--]


[------------IRe2--------------------]Now go back up to the Re1 sign and
[------------I-----------------------]play through until you get to the
[--13\11--11-I-11\9---9---9/11--11---]Re2 sign, then through until you get
[--13\11--11-I-11\9---9---9/11--11---]to the go to the picking figure below.
[--13\11--11-I-11\9---9---9/11--11---](note: at the end of Rythm figure two,
[--14\12--12-I-12\10--10--10/12-12---]play the last chord a few extra times)

[-----------------I-----------------I----------5---0----------]
[---5--7--5-------I----5--7--5------I-----7------5----5--7--5-]
[-0----------0----I-0-----------6---I---6---6-----------------]
[--------------0--I---------------0-I-0-----------------------]
[-----------------I-----------------I-------------------------]
[-----------------I-----------------I-------------------------]

~~~~~~~~~~~
[------------------------------------------]
[-------5--7--5---------7------------------]
[----0-----------0---0-----6--6--8--8--9/--]
[-0----------------0-----------------------]
[------------------------------------------]
[------------------------------------------]

Now play Rythm figure 1-A only. ( play 4 times, 4th time without the ending )

Next is a typically Edge-like solo. ( when the 4th and 5th strings are
played, damp them right away )

~~~
[---------------------------------------------------------------------]
[---17B---16^17^16---16-16\14-14B--14\12--12--12\10-10\9-9\5-5/7--7---]
[---------------------------------------------------------------------]
[-0-------------------------------------------------------------------]
[-0-------------------------------------------------------------------]
[---------------------------------------------------------------------]

~~~~~~~~~
[------------------------------------------------------------]
[--5/7--9B---7--5--7------7/17B-16^17^16--16-16\14B-14\12-12-]
[------------------------------------------------------------]
[----------------------0-------------------------------------]
[----------------------0-------------------------------------]
[------------------------------------------------------------]

~~~~~~~~~~~~~
~~~
[--------------------------------------------------------------------]
[-12\10-10\9-9\5-5/7-----5/7--9B--7--5--7-----9^10--9----7-9^10-9----]
[--------------------------------------------------------------------]
[-------------------------------------------0------------------------]
[-------------------------------------------0------------------------]
[--------------------------------------------------------------------]

~~~~~~~
[----------------------------------------------------------------------]
[--7----9^10--9------7\5-5-5--5--7B--5--7---9--7--9^10--9-------7/-----]
[----------------------------------------------------------------------]
[----------------------------------------------------------------------]
[----------------------------------------------------------------------]
[----------------------------------------------------------------------]

The last slide of the solo goes up to Rythm figure 1-A ( played 3X ),
then Rythm figure 1-B.

Rythm figure 1-B then leads into Rythm figure 2.

After Rythm figure 2 come the harmonics shown below.

[-------------------16--------------------16--------------16--16--------]
[--------------16-------16--------------------16-------------------16---]
[---------16-----------------16----16-------------16--------------------]
[----16-----------------------------------------------------------------]
[-----------------------------------------------------------------------]
[-----------------------------------------------------------------------]

The above harmonics are repeated again and then lead into picking.


[--------------I------------I------------5---0-------0-]
[--5--7--5-----I---7--5-----I------7-------5----7--5---]
[----------0---I-0------6---I----6---6-----------------]
[------------0-I----------0-I--0-----------------------]
[--------------I------------I--------------------------]
[--------------I------------I--------------------------]

~~~~~~~~
[------------------------------------]
[------5--7--5-----------------------]
[----0---------0---6-6--8-8--9/------]
[-0----------------------------------]
[------------------------------------]
[------------------------------------]

Next play rythm figure 1-A 4 times ( 4th time without ending )

Last is Edge's live outro jam. With so much going on it was very hard
to tab. This is the best I can make of it. Feel free to improvise.


~~~~~

[----------------------------------------------------------]
[----------------------------------------------------------]
[-------0^6^8-----11---14B--------0^6^8---11---14B---11----]
[--0--0---------------------0--0---------------------------]
[--0--0---------------------0--0---------------------------]
[--0--0---------------------0--0---------------------------]

~~~~
[-------------------------------------------------------------]
[-------------------------------------------------------------]
[-------0^6^8---11---14B---11----14--14--13--14--16----14--14-]
[-0--0--------------------------------------------------------]
[-0--0--------------------------------------------------------]
[-0--0--------------------------------------------------------]

This is the vaguest part. He seems topick and
play these chords and notes for maybe 10seconds.
[------------------------I--12-----------12-----12-------------------]
[------------------------I--12-----------12-----12-------------------]
[-13--14--16---14^13--11-I------11--11---11---------14^13--11---etc.-]
[----------------------0-I------0---0--------------------------------]
[----------------------0-I-------------------------------------------]
[----------------------0-I-------------------------------------------]

Here is the last part of the outro. I'm pretty sure about this.

[--------------------------------------------------------------------]
[--15--15---16--16---15---15---16----21---21---16----9----9-----9----]
[--15--15---16--16---15---15---16----21---21---16----9----9-----9----]
[--15--15---16--16---15---15---16----21---21---16----9----9-----9----]
[--15--15---16--16---15---15---16----21---21---16----9----9-----9----]
[--13--13---14--14---13---13---14----19---19---14----7----7-----7----]

Play above figure 2 more times.


[---------------------------------------------------------------------]
[-15--15--16--16--15--15--16--16--15--15--16--16--15--16--16--16---15-]
[-15--15--16--16--15--15--16--16--15--15--16--16--15--16--16--16---15-]
[-15--15--16--16--15--15--16--16--15--15--16--16--15--16--16--16---15-]
[-15--15--16--16--15--15--16--16--15--15--16--16--15--16--16--16---15-]
[-13--13--14--14--13--13--14--14--13--13--14--14--13--14--14--14---13-]


This transcription is only shows you what to play. For the exact
rythm please refer to the song. Feel free to E-mail me with questions,
comments, or corrections.






"Until The End Of The World"
--------------------------

tabbed by: Scott Yanoff, yanoff@csd4.csd.uwm.edu

INTRO:
E5E E E E E E Esus4 D/EE (Play this sequence 4 times)
D/E

b Haven't seen you in Dquite a while
I wase down the hold, just passing time
b Last time we met wasD a low-lit room
We were as e close together as bride and groom

D9We ate the food, we A9drank the wine
e Everybody having a good D/Gtime
Except you  D9  
You were talA9king about the end of the world

E E E E E E Esus4 E (4 times)

I took the money, I spiked your drink
You miss too much these days if you stop to think
You led me on with those innocent eyes
You know I love the element of surprise
In the garden I was playing the tart
I kissed your lips and broke your heart
You, you were acting like it was the end of the world

E E E E E E Esus4 E (4 times)

GUITAR SOLO
U2 "UNTIL THE END OF THE WORLD" SOLO
------------------------------------
steve palmer am560@freenet.carleton.ca

regular tuning E A D G B e

straight from the Achtung Baby songbook

NOTATION NOTE: whenever B|--b7--| occurs it is a VERY slight bend

e|-D/G10-10--10h12p10---9h10p9---Dsus29-7-5-3-2-0---|
B|------------------------------------------|
G|------------------------------------------|
D|------------------------------------------|
A|------------------------------------------|
E|------------------------------------------|


e|--Asus2-------------Asus2---------------------------|
B|--3h5-5---3-5-b7--5-3-5-------------------|
G|------------------------------------------|
D|------------------------------------------|
A|------------------------------------------|
E|------------------------------------------|



e|-D/G10-10--10h12p10---9h10p9---Dsus29-7-5-3-2-0---|
B|------------------------------------------|
G|------------------------------------------|
D|------------------------------------------|
A|------------------------------------------|
E|------------------------------------------|


Asus2 Asus2 (very fast)
e|------------------------------------3p2p0-|
B|--3h5-5---3-5-b7--5-3-5-------------------|
G|------------------------------------------|
D|------------------------------------------|
A|------------------------------------------|
E|------------------------------------------|


e|--D/G2-2--------3p2p0--Dsus22-2-------------3p2p0-|
B|------------------------------------------|
G|------------------------------------------|
D|------------------------------------------|
A|------------------------------------------|
E|------------------------------------------|


e|--Asus2-------------Asus2---------------------3p2p0-|
B|--3h5-5---3-5-b7--5-3-5-------------------|
G|------------------------------------------|
D|------------------------------------------|
A|------------------------------------------|
E|------------------------------------------|


e|--b 2-2--------3p2p0--D2-2--0-2h3/5--E7-------|
B|------------------------------------------|
G|------------------------------------------|
D|------------------------------------------|
A|------------------------------------------|
E|------------------------------------------|


This is a simplified version of the solo. If I included every
single note it would have been to hard to read. This will give
you the basis of the solo, and from here you can add what you
think is best, comments welcome.





D/ELa la b la la
La la Dla la
La la e la la la la
La la lb a la
La la Dla la
La la e la la la la

In my dream I was drowning my sorrows
But my sorrows they learned to swim
Surrounding me, going down on me
Spilling over the brim
Waves of regret, waves of joy
I reached out for the one I tried to destroy
You, you said you'd wait 'til the end of the world.

E E E E E E Esus4 E (4 times)

OUTRO:
E5 D5/E E5 D5/E E5 D5/E E5 D5/E
E5 D5/E E5 D5/E E5 D5/E E5 e

CHORD FORMATIONS:

D/E x 7 7 7 7 x D9 x x 0 2 3 0
E x 7 9 9 9 x A9 x 0 7 6 0 0
Esus4 x 7 9 9 10 x D/G 3 x 0 2 3 2
b x 2 4 4 3 2 E5 0 7 9 9 x x
D x 5 7 7 7 x D5/E 0 7 7 7 x x
e x 7 9 9 8 7


U2 "Until the End of the World" - BASS TAB
------------------------------------------
steve palmer am560@freenet.carleton.ca

*regular tuning

Intro:
|---E--------|-E------------|-E--------|-E--------------|
|:----------|-------------|---------|---------------|
|:--7-7--5--|-7-7------5--|-7-7--5--|-7-7------5----|
|-----------|------5-7----|---------|------5-7------|

( This riff is played whenever edge plays the main riff
of the song.)


Verse:
|--b ------------|--D------------|--e ------------|--e ---------------|
|:-------------|--------------|--------------|-----------------|
|:-2-2------0--|--5-5------3--|--7-7------5--|--7-7------5-----|
|-------0-2----|-------3-5----|-------5-7----|-------5-7-------|


|--b ------------|--D------------|--e ------------|--e ---------------|
|:-------------|--------------|--------------|-----------------|
|:-2-2------0--|--5-5------3--|--7-7------5--|--7-7------5-----|
|-------0-2----|-------3-5----|-------5-7----|-------5-7-------|


|--D9------------|--A9------------|--e ------------|--G/D---------------|
|:-------------|--------------|--------------|--5-4------------|
|:-5-5--3-5-3--|-------5-3----|--------------|------5----------|
|--------------|--5-5------5--|--0---0----3--|-----------------|


|--D9------------|--A9------------|--e ---------|--e ------------------|
|:-------------|--------------|-----------|--------------------|
|:-5-5--3-5-3--|--------------|--7-7--5---|--7-7------5--------|
|--------------|--5-5--3-5-3--|-----------|-------5-7----------|
(back to main riff)


Repeat verse

Solo:

|--G/D------------|--D9------------|--A9------------|--A9----------------|
|:-------------|--------------|--------------|------------------|
|:----------3--|--5-5--3-5-3--|--------------|------------------|
|--3-3--1-3----|--------------|--5-5--0-2-3--|--5-5--0-2-3------|


|--G/D------------|--D9------------|--A9------------|--A9----------------|
|:-------------|--------------|--------------|------------------|
|:----------3--|--5-5--3-5-3--|--------------|------------------|
|--3-3--1-3----|--------------|--5-5--0-2-3--|--5-5--0-2-3------|


|--G/D------------|--D9------------|--A9------------|--A9----------------|
|:-------------|--------------|--------------|------------------|
|:----------3--|--5-5--3-5-3--|--------------|------------------|
|--3-3--1-3----|--------------|--5-5--0-2-3--|--5-5--0-2-3------|


|--b ------------|--D------------|--e ----------|--e ------------------|
|:-------------|--------------|------------|--------------------|
|:-2-2------0--|--5-5------3--|--7-7--5----|--7-7------5--------|
|-------0-2----|-------3-5----|------------|-------5-7----------|


Repeat verse

Outro: (variation on main riff)

|-E------------|-E--------------|-E------------|-E--------------|
|:------------|------9-7-5----|-------------|------9-7-5----|
|:7-7------5--|-7-7-----------|-7-7------5--|-7-7-----------|
|------5-7----|---------------|------5-7----|---------------|


Oceń to opracowanie
Kontrybucje:
s314ryt
s314ryt
anonim