0
0

Tacy byliśmy Universe

solo:

E|--------------------------------------------|
H|-3----3--3--4--6---------------3--6--3--3---|
G|-------------------2--3---------------------|
D|--------------------------------------------|
A|--------------------------------------------|
E|--------------------------------------------|

E|---------------6--5--5--3--1--3--1----------|
H|--3--3--4--6--------------------------------|
G|--------------------------------------------|
D|--------------------------------------------|
A|--------------------------------------------|
E|--------------------------------------------|

zw. B - g - F
B - g
Dis - F - B - g
c - B - F

ref. B - d - Dis - B - F


Oceń to opracowanie
Ocena czytelników: Niczego sobie 4 głosy
Kontrybucje:
Slocho
Slocho
anonim