What Have You Done Within Temptation


E
B
G
D
A
D <--

INTRO SOFT:
---------------------------------------------------------------|
---------------------------------------------------------------|
---------------------------------------------------------------|
--7-7-7-6---9-9-9-7---11-11-11-9---12-12-12-11--14-12-7-9-6----|
--7-7-7-6---9-9-9-7---11-11-11-9---12-12-12-11--14-12-7-9-6----|
--7-7-7-6---9-9-9-7---11-11-11-9---12-12-12-11--14-12-7-9-6----|

VERSE Clean:
--------------------------------|
--------------------------------|
-----6------2------6---------4--|
----4------0------4------0--2---|
---4------0------4------0--2----|
--4------0------4------0--2-----|
Would you mind if I hurt you
Understand that I need to

VERSE Clean:
--------------------------------|
--------------------------------|
-----6---------4------2------4--|
----4------0--2------0------2---|
---4------0--2------0------2----|
--4------0--2------0------2-----|
Wish that I had other choices
Than to harm the one I love

What have you done now?

INTRO:
---------------------------------------------------------------|
---------------------------------------------------------------|
---------------------------------------------------------------|
--7-7-7-6---9-9-9-7---11-11-11-9---12-12-12-11--14-12-7-9-6----|
--7-7-7-6---9-9-9-7---11-11-11-9---12-12-12-11--14-12-7-9-6----|
--7-7-7-6---9-9-9-7---11-11-11-9---12-12-12-11--14-12-7-9-6----|


VERSE Clean:
--------------------------------|
--------------------------------|
-----6------2------6---------4--|
----4------0------4------0--2---|
---4------0------4------0--2----|
--4------0------4------0--2-----|
I know I'd better stop trying
You know that there's no denying
I won't show mercy on you now

VERSE with DISTORTION:
---------------------|---------------------|---------------------|
---------------------|---------------------|---------------------|
---------------------|---------------------|---------------------|
--4------4------4----|--0------0------2----|--0------0------0----|
--4------4------4----|--0------0------2----|--0------0------0----|
--4------4------4----|--0------0------2----|--0------0------0----|


---------------------|-------------------|-------------------|
---------------------|-------------------|-------------------|
---------------------|-------------------|-------------------|
--2------2------2----|--0----------------|------6------------|
--2------2------2----|--0----------------|------4------------|
--2------2------2----|--0----------------|-------------------|
I know I should stop believing
I know that there's no retrieving
It's over now
What have you done?

What have you done now?

Chorus:
---------------------|---------------------|---------------------|
---------------------|---------------------|---------------------|
---------------------|---------4------4----|---------------------|
--4------0------0----|--2------4------4----|--4------0------0----|
--4------0------0----|--2------2------2----|--4------0------0----|
--4------0------0----|--2------------------|--4------0------0----|

---------------------|---------------------|---------------------|
---------------------|---------------------|---------------------|
---------------------|---------------------|---------------------|
--2------2------2----|--4------0------0----|--2------2------2----|
--2------2------2----|--4------0------0----|--2------2------2----|
--2------2------2----|--4------0------0----|--2------2------2----|

---------------------|---------------------|
---------------------|---------------------|
---------------------|---------------------|
--0------0------0----|--2------2------2----|
--0------0------0----|--2------2------2----|
--0------0------0----|--2------2------2----|

I have been waiting for someone like you
But now you are slipping away
What have you done now?
Why? Why does faith make us suffer?
There's a curse between us
Between me and you

INTRO:
---------------------------------------------------------------|
---------------------------------------------------------------|
---------------------------------------------------------------|
--7-7-7-6---9-9-9-7---11-11-11-9---12-12-12-11--14-12-7-9-6----|
--7-7-7-6---9-9-9-7---11-11-11-9---12-12-12-11--14-12-7-9-6----|
--7-7-7-6---9-9-9-7---11-11-11-9---12-12-12-11--14-12-7-9-6----|
What have you done (x4)
What have you done now
What have you done (x4)
What have you done now

VERSE Clean:
--------------------------------|
--------------------------------|
-----6------2------6---------4--|
----4------0------4------0--2---|
---4------0------4------0--2----|
--4------0------4------0--2-----|
Would you mind if I killed you?
Would you mind if I tried to?

VERSE with DISTORTION:
---------------------|---------------------|---------------------|
---------------------|---------------------|---------------------|
---------------------|---------------------|---------------------|
--4------4------4----|--0------0------2----|--0------0------0----|
--4------4------4----|--0------0------2----|--0------0------0----|
--4------4------4----|--0------0------2----|--0------0------0----|


---------------------|-------------------|-------------------|
---------------------|-------------------|-------------------|
---------------------|-------------------|-------------------|
--2------2------2----|--0----------------|-----6-------------|
--2------2------2----|--0----------------|-----4-------------|
--2------2------2----|--0----------------|-------------------|
Cause you have turned into my worst enemy
You carry hate that I feel
It's over now
What have you done?

What have you done now?

Chorus:
---------------------|---------------------|---------------------|
---------------------|---------------------|---------------------|
---------------------|---------4------4----|---------------------|
--4------0------0----|--2------4------4----|--4------0------0----|
--4------0------0----|--2------2------2----|--4------0------0----|
--4------0------0----|--2------------------|--4------0------0----|

---------------------|---------------------|---------------------|
---------------------|---------------------|---------------------|
---------------------|---------------------|---------------------|
--2------2------2----|--4------0------0----|--2------2------2----|
--2------2------2----|--4------0------0----|--2------2------2----|
--2------2------2----|--4------0------0----|--2------2------2----|

---------------------|---------------------|
---------------------|---------------------|
---------------------|---------------------|
--0------0------0----|--2------2------2----|
--0------0------0----|--2------2------2----|
--0------0------0----|--2------2------2----|
I have been waiting for someone like you
But now you are slipping away
What have you done now?
Why? Why does faith make us suffer?
There's a curse between us
Between me and you

INTRO:
------------------------------------------------------------|-----|
------------------------------------------------------------|-----|
------------------------------------------------------------|-----|
--7-7-7-6---9-9-9-7---11-11-11-9---12-12-12-11--14-12-7-9-6-|-(4)-|
--7-7-7-6---9-9-9-7---11-11-11-9---12-12-12-11--14-12-7-9-6-|-(4)-|
--7-7-7-6---9-9-9-7---11-11-11-9---12-12-12-11--14-12-7-9-6-|-(4)-|
What have you done (x4)
What have you done now
What have you done (x4)
What have you done now

SOLO VOICE:
---------------------|---------------------|---------------------|---------------------|
---------------------|---------------------|---------------------|---------------------|
--4------4------4----|---------------------|---------------------|--6-------6--------6-|
--4------4------4----|--4------4------4----|--2------2------2----|--6-------6--------6-|
--2------2------2----|--4------4------4----|--2------2------2----|--4-------4--------4-|
---------------------|--4------4------4----|--2------2------2----|---------------------|


BRIDGE:
---------------------|---------------------|---------------------|
---------------------|---------------------|---------------------|
---------------------|---------------------|---------------------|
--0------0------0----|--2------2------2----|--6------6------6----|
--0------0------0----|--2------2------2----|--4------4------4----|
--0------0------0----|--2------2------2----|---------------------|

----------------------|---------------------|---------------------|
----------------------|---------------------|---------------------|
----------------------|---------------------|---------------------|
--4--4------2--2------|--0------0------0----|--2------2------2----|
--4--4------2--2------|--0------0------0----|--2------2------2----|
--4--4------2--2------|--0------0------0----|--2------2------2----|

--------------------------------------|-------------------|
--------------------------------------|-------------------|
--------------------------------------|-------------------|
--6-----------------------------------|--6----------------|
--4-----------------------------------|--4----------------|
--------------------------------------|-------------------|
I will not fall
Won't let it go
We will be free
When it ends

Chorus:
---------------------|---------------------|---------------------|
---------------------|---------------------|---------------------|
---------------------|---------4------4----|---------------------|
--4------0------0----|--2------4------4----|--4------0------0----|
--4------0------0----|--2------2------2----|--4------0------0----|
--4------0------0----|--2------------------|--4------0------0----|

---------------------|---------------------|---------------------|
---------------------|---------------------|---------------------|
---------------------|---------------------|---------------------|
--2------2------2----|--4------0------0----|--2------2------2----|
--2------2------2----|--4------0------0----|--2------2------2----|
--2------2------2----|--4------0------0----|--2------2------2----|

---------------------|---------------------|
---------------------|---------------------|
---------------------|---------------------|
--0------0------0----|--2------2------2----|
--0------0------0----|--2------2------2----|
--0------0------0----|--2------2------2----|
I, have been waiting for someone like you
But now you are slipping away
What have you done now?
Why? Why does fate make us suffer?
There's a curse between us
Between me and you


Oceń to opracowanie
Kontrybucje:
Maricia
Maricia
anonim