0
0

Pa,pa,pa Akurat

Tekst piosenki i chwyty na gitarę

  • Chwyty na gitarę syśka
    34 ulubione
wstęp:

Gissus4 Gis Fissus4 Fis

zwrotka:

fisJest już bardzo pAóźno
Pora juEsus4ż sEpaEsus4ć  E 
fisJutro do przedszkAola
Będę musiał wstEsus4ać E   Esus4   E 


Jestem tak szczęśliwy
Bo w dzisiejszym dniu
Sam zawiązałem
Na kokardkę but

refren:

cisKiedy o tym mhyślę
cisNie chce mi się sfissus4pać   fis   
I tylko ksiDężyc opowiEada mi
cisNajpiękniejsze w jego żDyciu sny
Na sufDicie wEidzę je
cisSą takie kolorDowe


Jest już bardzo późno
Chcę jeszcze spać
Zaraz do przedszkola
Będę musiał wstać
Jedno co mnie cieszy
To radosna myśl
Sam zawiążę buty
I podreptam w nich

Kiedy o tym myślę
Nie chce mi się spać
I tylko słońce opowiada mi
Najcieplejsze w jego życiu dni
Na suficie widzę je
Są takie kolorowe

pa, pa, pa

użyte akordy:


   fis       A        E        D     (w Eref.)

e---2-------5-------0-------5-------7
h---2-------5-------0-------7-------9
g---2-------6-------1-------7-------9
d---4-------7-------2-------7-------9
a---4-------7-------2-------5-------7
e---2-------5-------0-------5-------7


Gissus4 Fissus4 Esus4 cis h

e---4-------2-------0-------4-------2
h---4-------2-------0-------5-------3
g---6-------4-------2-------6-------4
d---6-------4-------2-------6-------4
a---6-------4-------2-------4-------2
e---4-------2-------0-------4-------2


--------------------------------------------------------------------------------



Oceń to opracowanie
Ocena czytelników: Niczego sobie+ 4 głosy
Kontrybucje:
syśka
syśka
anonim
  • Kevin
    gis fis
    Kiedy o tym myślę
    gis Fis
    Nie chce mi się spać

    AJ to tak gram i brzmi lepiej...
    · Zgłoś · 12 lat temu
  • syśka
    to jest to samo co Gissus4 i Fissus4,podane sa numery progow,jezeli wolisz inny zapis, to mozna i tak:
    Gis4
    4 5 6 7
    E|-0-|---|---|---|
    H|-0-|---|---|---|
    G|---|---|-0-|---|
    D|---|---|-0-|---|
    A|----|---|-0-|---|
    E|-0-|---|---|---|

    Fis jest tak samo, tylko dwa progi nizej:)
    · Zgłoś · 14 lat temu
  • Madzia
    gościu
    jak zagrać Fis4 i Gis4 wszędzie szukałam,nie ma.
    · Zgłoś · 14 lat temu