0
0

Please Tell Rosie Alle Farben

Tekst piosenki i chwyty na gitarę

  • Chwyty na gitarę Początkujący
    4 ulubione
Intro
e|--------------------------------|
B|-3-1-0---0------3-1-0---0-------|
G|-------2---0-2--------2---0-0---| X2
D|------------------------------2-|
A|--------------------------------|
E|--------------------------------|

e|----------------------|
B|-0-0-0-------0--------|
G|-----------0-------0--|
D|-------2-2-----2-2----|
A|----------------------|
E|----------------------|

e|-----------------------0--------------------|
B|---3-0-------3-3-0-------1-0-----------0----|
G|-0-----2-0-0-------2-0-------0-0---0-2---0--|
D|---------------------------------2----------|
A|--------------------------------------------|
E|--------------------------------------------|


Zwrotka
Even if the Glights go Dout,
Even in the Gsummer rDain,
Even if the Gsun comeDs up,
Ooh, we a keep on dancing,a keep on…

Even if the Glights go Dout,
Even if the Groad is Dlong,
Even if our Gheart isD broken,
Oah, we a keep on dancing,a keep on dancing…


Refren
GPlease tell Rosie,
DI'm not gonna come back,
a Til' September causeC music is my best friend,
GOnce you tell her,
DTo water the flowers,
a I wanna to remember,
CMusic is my best friend

GPlease tell Rosie,
DI'm not gonna come back,
a Til' September causeC music is my best friend,
GOnce you tell her,
DTo water the flowers,
a I wanna to remember,
CMusic is my best friend

GPlease tell Rosie, a keep on dancing…


Zwrotka
Even if the Glights go Dout,
Even in the Gsummer rDain,
Even if the Gsun comeDs up,
Ooh, we a keep on dancing,a keep on…

Even if the Glights go Dout,
Even if the Groad is Dlong,
Even if our Gheart isD broken,
Oah, we a keep on dancing,a keep on dancing…


Refren
GPlease tell Rosie,
DI'm not gonna come back,
a Til' September causeC music is my best friend,
GOnce you tell her,
DTo water the flowers,
a I wanna to remember,
CMusic is my best friend

GPlease tell Rosie,
DI'm not gonna come back,
a Til' September causeC music is my best friend,
GOnce you tell her,
DTo water the flowers,
a I wanna to remember,
CMusic is my best friend

GPlease tell Rosie, a keep on dancing…

GPlease tell Rosie,
DI'm not gonna come back,
a Til' September causeC music is my best friend,
GOnce you tell her,
DTo water the flowers,
a I wanna to remember,
CMusic is my best friend

Oceń to opracowanie
Ocena czytelników: Słaby 1 głos
Kontrybucje:
haybacko
haybacko
anonim

Najpopularniejsze piosenki Alle Farben