0
0

White Christmas Bing Crosby


(L. Armstrong)


Guitar 1 - riff

PART 1

E1-5-5----5-5---|-5-5---6/(7)-7-6-|-5-5----7-7---|-5-5----5---7--|
H2-5--5---5--5--|-6--6--7/(8)-8-7-|-6--6---8--8--|-5--5---6---8--|
G3-5---5--6---6-|-5---5-6/(7)-7-6-|-5---5--7---7-|-5---5--5---7--|
D4-5------5-----|-7-----8/(9)-9-8-|-7------9-----|-5------7---9--|
A5-3------7-----|-5---------------|-5------7-----|-3------5---7--|
E6--------5-----|-----------------|--------------|---------------|

PART 2

E1-5-5----------|----------------|-5-5----5---1--|---------------|
H2-5-5-5/(10)\-8|-1-1-1/-(8)\-6--|-5--5---6---1-5H6--------------|
G3-5-5-3/-(9)\-5|-2-2---------5--|-5---5--5---1-4|--4-5---7---10-|
D4-5-5-5/(10)\-7|-3-3---------6--|-5------7---1-5|--5-7---9---12-|
A5-3-3----------|-3-3------------|-3------5---3--|---------------|
E6--------------|----------------|------------4--|---------------|

POWT. PART 1

PART 4

E1-5-5----------|-5---10---------|-5-5----5---1--|----7------7---|
H2-5-5-5/(10)\-8|-6----9---6-----|-5--5---6---1--|----5------5---|
G3-5-5-3/-(9)\-5|-5---10---5-----|-5---5--5---1--|----5------5---|
D4-5-5-5/(10)\-7|-7--------6-----|-5------7---1--|----5------5---|
A5-3-3----------|-5--------------|-3------5---3--|-3-------------|
E6--------------|----------------|------------4-3|--------3------|

ostatni takt powt.


Guitar 2 - melody

PART 1

E1--------------|----------------|----7-8-10-8-7--|---------------|
H2-5-----6-5-4-5|-6-------7-/-8--|--10----------10|-8-------------|
G3--------------|----------------|----------------|-----------5-7-|
D4--------------|----------------|----------------|---------------|
A5--------------|----------------|----------------|---------------|
E6--------------|----------------|----------------|---------------|

PART 2

E1---------5----|---------------|-----------------|---------------|
H2-5--5--5----8-|---------8---6-|-5--5--6-5-------|---------------|
G3--------------|-5--5--5-------|-----------7-5-/-|-7-----5-------|
D4--------------|---------------|-----------------|---------7-5---|
A5--------------|---------------|-----------------|---------------|
E6--------------|---------------|-----------------|---------------|

POWT. PART 1

PART 4

E1---------5----5/(8)-----------|-------5---------|--------------|
H2-5--5--8---8--|---------------|-5--5----8-------|--------------|
G3--------------|----------5--7-|------------5--7-|-5------------|
D4--------------|---------------|-----------------|--------------|
A5--------------|---------------|-----------------|--------------|
E6--------------|---------------|-----------------|--------------|

Gram jeszcze bas - rozpisać go mogę w komentarzu...
Miłego grania - polecam MP3 z moim wykonaniem wg tego zapisu!

Oceń to opracowanie
Ocena czytelników: Słaby 1 głos
Kontrybucje:
Winnetou
Winnetou
anonim