0
0

Adam's Song Ver 2 Blink 182

Tekst piosenki i chwyty na gitarę

  • Chwyty na gitarę Kurt Cobain
    1 ulubiony
Riff1 Intro
e-----------------------------------------------------------
B-----------------------------------------------------------
[G-----------------------------------------------------------]D----4-0----4-0----4-0----4-0----4-0----4-0----4-0----4-0---
A--2------2------0------0-----------------------------------
E------------------------------3------3------0------3-------

[Intro]
Riff1 (guitar)
Riff1 (guitar+drum)

[Zwrotka] (clean palm mute)
[D*] I never tG5hought_  I'd die aB5lone_    I laughed the G5lou_dest who'd have [D*]known_?
I trace the G5cord_ back to the B5wall_   No wonder it was G5never plugged in at [D*]all_
I took my G5time_, I hur_ried B5up_     The choice was G5mine_ I didn't think e[D*]nough_
G5 B5 G5 Riff2a (guitar)
I'm too depressed_, to go on_ You'll be sor_ry_ when I'm gone_

Riff2a (guitar+drum+bass)

Riff2a Interlude
e----------------------------------------------------------
[B----------------------------------------------------------]G------0------0------0------0------------------------------
D----7------7------9------9------4-0----4-0----4-0----4-0--
A--5------5------7------7------2------2--------------------
E--------------------------------------------3------3------

[Refren1] (little dist.)
D5 I ne__ver e con_quered, rarely b came - six_teen_ just Gheld_ such better D5days
D5 e b G D5 (dist.)
Days when I__ still felt alive__ We couldn't wait__ to get outside_
The world_ was E5wide_, too late_ to B5try_    The tour was G5o_ver, we'd surD5vived
E5 B5 G5 Riff1 Riff1
I couldn't wait_ till I_ got_ home_ To pass the time_ in my room alone_

[D*]I ne_ver_ tG5hought_   I'd die a_B5lone_   Another six_ G5months_ I'll be un[D*]known_
Give all_ my G5things_ to all my B5friends_  You'll never set G5foot_ in my room [D*]again
You'll close it G5off_, board_ it B5up_   Remember the G5time_ that I spilled the [D*]cup_
G5 B5 G5 Riff2b (guitar)
Of apple_ juice_ in_ the hall_ Please_ tell mom_ this is not her fault

Riff2b guitar+drum+bass)

Riff2b Interlude
e----------------------------------------------------------
[B----------------------------------------------------------]G------0------0------0------0------------------------------
D----7------7------9------9------4-0----4-0----2-0----2-0--
A--5------5------7------7------2------2--------------------
E--------------------------------------------3------3------

[Repeat Chorus1] (no Riff2 at the end)

[Bridge] (clean) Bassline:
D5 G5 A5 G5 D5 G5 A5 B5 G5
D5 G5 A5 G5 D5 G5 A5 B5 G5

D5 G5 D5 G5 D5 G5 A5 B5 G5

Riff3 Bridge beginning
e-----------------------------------
[B-----------------------------------]G-----0-----0-------------0-----0---
D---4-----4------------4------4-----
A-5-----5------------5------5-----5-
E-----------------------------------

Riff4 Bridge end
[e--------------------------------]B-----3-----3-----3-----3-----3--
G---2-----2-----2-----2-----2----
D-0-----0-----0-----0-----0------
A--------------------------------
E--------------------------------

[Refren2] (heavy dist.)
D5 I ne__ver E5con_quered, rarely B5came - To_morrow_ G5holds_ such better D5days
D5Days when E5I__ still feel aB5live__    When I can't G5wait__ to get outD5side_
The world_ was E5wide_, as time_ goes B5by_    The tour is G5o_ver, I_'ve surD5vived
I can't E5wait_ till I_ got_ B5home_  To pass the G5time_ in my room D5alone_

Chorus

Guitar1
e|-D5----------------E5----------------B5----------------G5----------------|
B|-----------------------------------------------------------------|
G|-7-7-7-7-7-7-7-7-9-9-9-9-9-9-9-9-4-4-4-4-4-4-4-4-----------------|
D|-7-7-7-7-7-7-7-7-9-9-9-9-9-9-9-9-4-4-4-4-4-4-4-4-5-5-5-5-5-5-5-5-|
A|-5-5-5-5-5-5-5-5-7-7-7-7-7-7-7-7-2-2-2-2-2-2-2-2-5-5-5-5-5-5-5-5-|
E|-------------------------------------------------3-3-3-3-3-3-3-3-|

Guitar2 Enters "outside the world was wide.."
E|-----------------------------------------------------------------|
B|-7-7-7-7-7-7-7-7-8-8-8-8-8-8-8-8-7-7-7-7-7-7-7-7-8-8-8-8-8-8-8-8-|
G|-x-x-x-x-x-x-x-x-x-x-x-x-x-x-x-x-x-x-x-x-x-x-x-x-x-x-x-x-x-x-x-x-|
D|-4-4-4-4-4-4-4-4-5-5-5-5-5-5-5-5-4-4-4-4-4-4-4-4-5-5-5-5-5-5-5-5-|
A|-----------------------------------------------------------------|
E|-----------------------------------------------------------------|

Guitar2 Enters at "I couldn't wait till I got home.."
E|-----------------------------------------------------------------|
B|-7-7-7-7-7-7-7-7-8-8-8-8-8-8-8-8-7-7-7-7-7-7-7-7-----------------|
G|-x-x-x-x-x-x-x-x-x-x-x-x-x-x-x-x-x-x-x-x-x-x-x-x-7-7-7-7-7-7-7-7-|
D|-4-4-4-4-4-4-4-4-5-5-5-5-5-5-5-5-4-4-4-4-4-4-4-4-x-x-x-x-x-x-x-x-|
A|-------------------------------------------------5-5-5-5-5-5-5-5-|
E|-----------------------------------------------------------------|

Bridge

Piano part in the middle of bridge
e-----------------------3-3-3-2----------------------
B--3---5-3------3--5-3-----------3--3------3-5-3-----
G----------------------------------------2--------0--
D----------------------------------------------------
A----------------------------------------------------
E----------------------------------------------------

e----------------2-----3---5--|
B----3-5----3------3----------|
G--2-----2-----------2--------|
D-----------------------------|
A-----------------------------|
E-----------------------------|

Chords:
Tuning: 1 step down
(DGCFAD)

D* x54xxx
G5 355xxx
B5 x244xx
D5 x577xx
Em 022000
b x24432
G 320033
E5 x799xx / 022xxx
A5 x022xx


Oceń to opracowanie
Kontrybucje:
Kurt Cobain
Kurt Cobain
anonim