Wakacyjny Konkurs Śpiewnikowy
Wakacyjny Konkurs Śpiewnikowy
Popraw Opracowanie Usuń
Transponuj
0

What's My Age Again? Blink 182

"What's My Age Again?"
                             Blink-182
                 from the album Enema of the State




INTRO (play four times)
Gtr. 1 (slightly dirty elec. w/reverb)

|-----------------------------------------------------------------|
|----------11-------------11-------------11--------------11-------|
|------11------11-----11------11-----11------11------11------11---|
|---9-------------------------------------------------------------|
|------------------9----------------------------------------------|
|---------------------------------9--------------11---------------|



1st VERSE
Gtr. 1

      I  took  her out               it was a Friday night....
|-----------------------------------------------------------------|
|----------11-------------11-------------11--------------11-------|
|------11------11-----11------11-----11------11------11------11---|
|---9-------------------------------------------------------------|
|------------------9----------------------------------------------|
|---------------------------------9--------------11---------------|
                  **** repeat two times ****

   ...but then I turned on the T.V....
|-----------------------------------------------------------------|
|----------11-------------11-------------11-------------11--------|
|------11------11-----11------11-----11------11-----11------11----|
|---9-------------------------------------------------------------|
|------------------9----------------------------------------------|
|---------------------------------9--------------9----------------|

  and that's about...she walked a...
|-----------------------------------------------------------------|
|----------11-------------11--------------------------------------|
|------11------11-----11------11----------------------------------|
|-----------------------------------------------------------------|
|-----------------------------------------------------------------|
|---7--------------7----------------------------------------------|



CHORUS
Gtrs. 2 & 3 (w/ heavy dist.)

  ...way     from       me
|-----------------------------------------------------------------|
|-----------------------------------------------------------------|
|---------------6---6-----x------8---8------x-------4--4-4--4-4---|
|---4-----x-----6---6-----x------8---8------x-------4--4-4--4-4---|
|---4-----x-----4---4-----x------6---6------x-------2--2-2--2-2---|
|---2-------------------------------------------------------------|
                  **** repeat two times ****

 ...friends say...act my age...   What's my age again?
|-----------------------------------------------------------------|
|-----------------------------------------------------------------|
|---------------6---6-----x------8---8----8---8---8---8---8---8---|
|---4-----x-----6---6-----x------8---8----8---8---8---8---8---8---|
|---4-----x-----4---4-----x------6---6----6---6---6---6---6---6---|
|---2-------------------------------------------------------------|

        What's my age again?
|-----------------------------------------------------------------|
|-----------------------------------------------------------------|
|---6---6----6---6---6---6---6---6-------4------------------------|
|---6---6----6---6---6---6---6---6-------4------------------------|
|---4---4----4---4---4---4---4---4-------2------------------------|
|-----------------------------------------------------------------|
                                         *let ring
                                      Gtr. 1 plays Intro riff once
                                           (first time only)

2nd VERSE
Gtrs. 2 & 3

       But later on                   on  the    drive  home
|-----------------------------------------------------------------|
|-----------------------------------------------------------------|
|---4---4---4--4-------------------6---6---6--6---8---8---8---8---|
|---4---4---4--4---4---4---4--4----6---6---6--6---8---8---8---8---|
|---2---2---2--2---4---4---4--4----4---4---4--4---6---6---6---6---|
|------------------2---2---2--2-----------------------------------|
    P.M........................................................
                    **** repeat twice ****

      The state looks down on sodomy...
|-----------------------------------------------------------------|
|-----------------------------------------------------------------|
|---4---4---4--4-------------------6---6--6---6---6---6---6---6---|
|---4---4---4--4---4---4---4--4----6---6--6---6---6---6---6---6---|
|---2---2---2--2---4---4---4--4----4---4--4---4---4---4---4---4---|
|------------------2---2---2--2-----------------------------------|
    P.M........................................................


   and that's about...that bitch
|-----------------------------------------------------------------|
|-----------------------------------------------------------------|
|---4---4--4---4---4---4--4---4-----------------------------------|
|---4---4--4---4---4---4--4---4-----------------------------------|
|---2---2--2---2---2---2--2---2-----------------------------------|
|-----------------------------------------------------------------|
    P.M........................



INTERLUDE
Gtr. 1

|---------------------------------------------------------------------|
|---11----------------11------------------11----------------11--------|
|--------11----------------11------------------11----------------11---|
|-------------------------------------9-------------------------------|
|---------------------------------------------------------------------|
|---------------------------------------------------------------------|

|---------------------------------------------------------------------|
|---------------------------------------------------------------------|
|---------------------------------------------------------------------|
|-----------8h-9-------------8h-9-------------8h-9-------------8h-9---|
|---9-9-9-------------9-9-9------------9-9-9------------9-9-9---------|
|---------------------------------------------------------------------|

|---------------------------------------------------------------------|
|---------------------------------------------------------------------|
|---------11---------------11--------------11---------------11--------|
|-----9-------9--------9-------9-------9-------9--------9-------9-----|
|---9---9-------9----9---9-------9---9---9-------9----9---9-------9---|
|---------------------------------------------------------------------|

                                              And that's...she walked
|---------------------------------------------------------------------|
|---------------------------------------------------------------------|
|---------11---------------11--------------11---------------11--------|
|-----9-------9--------9-------9-------9-------9--------9-------9-----|
|---9---9-------9----9---9-------9---9---9-------9----9---9-------9---|
|---------------------------------------------------------------------|


OUTRO
Gtrs. 2 & 3 play Chorus, Gtr. 1 plays Intro

Oceń to opracowanie

Kontrybucje
s314ryt

Wakacyjny Konkurs Śpiewnikowy

Pula nagród w konkursie ponad 10.000 zł!
Przysyłaj opracowania piosenek i zdobądź bony na zakupy w sklepie muzycznym.
Zapoznaj się z regulaminem konkursu.
anonim