0
0

I'll Always Be Right There Bryan Adams

Tekst piosenki i chwyty na gitarę

  • Chwyty na gitarę Punko
    4 ulubione
Beautiful song, full credit to
Keith S. and Bryan A.


/ is "slide"
h is "hammer on"
p is "pull off"
d is "dampen"
( ) is "Ghost note"


CHORD DEFINITIONS:

-D/F#-----      -E/G#-----      -A/C#-----      --f ----
X04232 422100 X42220 244222

d! X XX
------ ------
|||||| 1st fret ||||||
111111 (bar) This is a C shaped bar chord ||11||
||||2| which can be simplified when ||||||
||3||| playing the tab to... ||2|||
|4|||| 5th fret |4||||

but if your just strumming chords use the normal D (a hell of a
lot easier).
--------------------------------------------------------------------


I'll Always be right there
--------------------------

|-A---------------|-A----0-------5--|-D/F#2------------0-|-A---------------|
|---------2---3--|----------------|-3--------3---2-|----------------|
|---------2------|----------------|-2------------2-|--------------2-|
|----2-----------|----------------|-4------------2-|----------------|
|-0--------------|-0-------0------|-0----0-------0-|----------------|
|----------------|----------------|----------------|----------------|

|-A---------------|-A----0-------5--|-D/F#2------------0-|-A---------------|
|---------2---3--|----------------|-3-------3h5--2-|----------------|
|---------2------|----------------|-2------------2-|----------------|
|-----2----------|----------------|-4------------2-|----------------|
|--0-------------|-0-------0------|-0----0-------0-|----------------|
|----------------|----------------|----------------|----------------|

I swear to you I will always be
|-E----0----------|-A---------------|--E---0----------|--A--------------|
|-0-------0------|-------------2--|-0-------0------|-------------2--|
|-1-----------1--|---------2------|-1-----------1--|---------2------|
|----------------|-----2----------|----------------|-----2----------|
|----------------|-0--------------|----------------|-0--------------|
|----------------|----------------|----------------|----------------|

there for you There’s nothing I won't do
|-E----0----------|-A---------------|--D--------------|--E--------------|
|-0-------0------|-------------2--|------------0---|-------------0--|
|-1-----------1--|---------2------|--------2-------|---------1------|
|----------------|-----2----------|-0--------------|-----2----------|
|----------------|-0--------------|----0-----------|----------------|
|----------------|----------------|----------------|-0--------------|

I promise you All my life I will
E E/G# A b A/C# D!
|----------------|----------------|-----0----------|----------------|
|----------------|-------------2--|-3------3----0--|----------------|
|-----1------1---|---------2------|----------------|-----2-------2--|
|---2------2-----|-----2----------|----------------|---2-------4----|
|-2--------------|-0--------------|-2--------------|-4-------5------|
|--------4-------|----------------|----------------|----------------|

live for you we will make it through.
|-E---------------|-f ---------------|--D--------------|--E--------------|
|--------------0-|----------2-----|--------------0-|--------------0-|
|----------1-----|-----2-------2--|----------2-----|----------1-----|
|------2---------|---4---4--------|--0-------------|------2---------|
|----------------|-4--------------|------0---------|----------------|
|-0--------------|----------------|----------------|--0-------------|



CHORUS:
For- ever we will be
|D----------------|-A---------------|-A/C#---------------|-D---------------|
|---7-----7----5-|---2-------3h5--|--2-------------|--------0-------|
|--7----------6--|---2------------|----------------|-----2----------|
|------7---------|----------------|--------2----0--|----------------|
|----------------|----------------|-----4----------|----------------|
|----------------|----------------|----------------|----------------|

To- gether you and me
|D----------------|-A----5----------|-f ---------------|-E---------------|
|--7----------5--|----------------|----------------|--------------0-|
|--7------7---6--|------------2---|--------------2-|----------1-----|
|-----7----------|----------4-----|----------4-----|------2---------|
|--5----------4--|----------------|------4---------|----------------|
|----------------|--------2-------|--2-------------|--0-------------|

Oh, and when I hold you Nothing can compare
|E-----0----------|-A/C#---------------|-E----0----------|-A/C#---------------|
|--0------0------|------------2---|-0-------0------|----------2-----|
|--1----------1--|-------2--------|-1-----------1--|------2---------|
|----------------|-----2---2----2-|----------------|----2---2----2--|
|----------------|--4-------------|----------------|--4-------------|
|----------------|----------------|----------------|----------------|

With all of my heart you know I'll always be....
E|-----0----------|-A---------------|-D---------------|-E---------------|
|--0------3\2--2-|-----0----------|-------------0--|-------------0--|
|--1-----------2-|--------2---1---|---------2------|----------1-----|
|--------------2-|----------------|--0-------------|------2---------|
|----------------|----------------|------0---------|----------------|
|----------------|----------------|----------------|--0-------------|

right there...
|-0--------------|----------------|-A---------------|-A----0-------5--|
|----------------|----------------|----------2---3-|----------------|
|----------------|----------------|----------2-----|----------------|
|------REST------|----------------|------2---------|----------------|
|----------------|----------------|--0-------------|--0------0------|
|----------------|----------------|----------------|----------------|

|-D/f#-2-----------0-|-A---------------|
|--3------3h5--2-|----------------|
|--2-----------2-|----------------|
|--4-----------2-|------REST------|
|--0---0-------0-|----------------|
|----------------|----------------|



VERSE 2:
I believe in us Nothing else could ever
E|------0---------|-A---------------|-E-----0---------|-A---------------|
|--0-------0-----|--------------2-|--0-------0-----|--------------2-|
|--1----------1--|----------2-----|--1----------1--|----------2-----|
|----------------|------2---------|----------------|------2---------|
|----------------|--0-------------|----------------|--0-------------|
|----------------|----------------|----------------|----------------|

mean so much. Your the one I trust
E|------0---------|-A---------------|-D---------------|-E-------------0-|
|--0-------0-----|-------------2--|-------------0--|------------0---|
|--1----------1--|---------2------|----------2-----|----------1-----|
|----------------|------2---------|--0-------------|-----2----------|
|----------------|--0-------------|------0---------|----------------|
|----------------|----------------|----------------|--0-------------|


Our time has come We're not two people now
E E/G# A b A/C# D!
|----------------|----------------|------0---------|----------------|
|----------------|--------------2-|--3------3---0--|----------------|
|--------------1-|----------2-----|----------------|------2-------2-|
|----2-------2---|------2---------|----------------|----2-------4---|
|--2-------------|--0-------------|--2-------------|--4-------5-----|
|----------4-----|----------------|----------------|----------------|

we are one yeah, your second to none.
E|----------------|-f ---------------|-D---------------|-E---------------|
|--------------0-|---------2------|-------------0--|--------------0-|
|----------1-----|-----2-----2--2-|---------2------|----------1-----|
|------2---------|---4---4----4---|--0-------------|------2---------|
|----------------|-4--------------|------0---------|----------------|
|--0-------------|----------------|----------------|--0-------------|




CHORUS: (with slight changes, basically the same though)

For- ever we will be
|D----------------|-A---------------|--A/C#--------------|--D--------------|
|---7-----7---5--|----------------|----------------|----------0-----|
|--7---------6---|----------------|----------2-----|-------2--------|
|------7---------|-----REST-------|------2------0--|----------------|
|----------------|----------------|--4-------------|----------------|
|----------------|----------------|----------------|----------------|

To- gether a family
|D----------------|-A----5----------|-f ---------------|--E----------0---|
|--7---------5---|----------------|-------------2--|-------0------0-|
|--7------7--6---|------------2---|---------2------|----------1-----|
|-----7----------|----------4-----|-----4----------|-----2----------|
|--5---------4---|----------------|----------------|---2------------|
|----------------|--------2-------|--2-------------|-0--------------|

Oh, and when I hold you, nothing can compare
|E------0---------|-A/C#---------------|-E----0----------|A/C#----------------|
|--0------0------|---------2------|--0------0------|----------2-----|
|--1----------1--|-----2-----2----|--1----------1--|------2---------|
|----------------|---2---2-----2--|----------------|----2---2-------|
|----------------|-4--------------|----------------|--4-------------|
|----------------|----------------|----------------|----------------|

With all of my heart you know I'll always be
|E------0---------|-A---------------|-D---------------|-E---------------|
|--0------3\2--2-|-----0----------|--------------0-|--------------0-|
|--1-----------2-|--------2---1---|----------2-----|----------1-----|
|--------------2-|----------------|--0-------------|------2---------|
|----------------|----------------|------0---------|----------------|
|----------------|----------------|----------------|--0-------------|

right there... GUITAR SOLO:
E|-0--------------|A----------------|-D-5-----------4-|--cis------b 2-4p2---|
|----------------|----------------|--7-----------5-|--------3-------|
|----------------|-------6/7------|--7-----------6-|--------4-------|
|------REST------|----------------|--------0--d----|----0--d--------|
|----------------|----------------|----------------|----------------|
|----------------|----------------|----------------|----------------|

|A--0-------------|-fis----------0----|-E-----0---------|-A---------------|
|--2------2p0----|-----2---2-----2|--0------0---2--|--------2h3p2---|
|--2----------2--|---2---2-----2--|--1----------2--|----------------|
|----------------|-4--------------|----------------|-----2----------|
|----------------|----------------|------------(0)-|--0-------------|
|----------------|----------------|----------------|----------------|

|-E---------------|-A-------0---5---|
|----------------|----------------|
|-1--------------|-----2----------|
|---2------------|--2-------------|
|-----2-0---2-0--|----------------|
|---------4------|----------------|



LAST CHORUS (DIFFERENT):
For- ever we will be
|D----------------|-A---------------|-A/C#---------------|-D---------------|
|---7-----7----5-|---2-------3h5--|--2-------------|-------0--------|
|--7----------6--|---2------------|----------------|---2------------|
|------7---------|----------------|--------2----0--|----------------|
|----------------|----------------|-----4----------|----------------|
|----------------|----------------|----------------|----------------|

To- gether ooh, just you and me
|D----------------|-A----5----------|-f ---------------|-E-----------0---|
|--7------7---5--|----------------|--------------0-|-------0------0-|
|--7----------6--|------------2---|----------2-----|----------1-----|
|-----7----------|----------4-----|------2---------|-----2----------|
|--5----------4--|----------------|----------------|---2------------|
|----------------|--------2-------|--0-------------|-0--------------|

The more I get to know you The more I really care
|E------0---------|-A/C#---------------|-E----0----------|-A/C#---------------|
|--0-------0-----|----------2-----|-0-------0------|----------2-----|
|--1-----------1-|-----2------2---|-1-----------1--|-----2-------2--|
|----------------|---2---2------2-|----------------|---2---2--------|
|----------------|-4--------------|----------------|-4--------------|
|----------------|----------------|----------------|----------------|

With all of my heart you know I'll always be,
|E------0---------|-A---------------|-D---------------|-E------------0--|
|--0------3---2--|--------0-------|-------------0--|-----------0----|
|--1----------2--|-----------2-1--|----------2-----|---------1------|
|-------------2--|----------------|--0-------------|-----2----------|
|----------------|----------------|------0---------|----------------|
|----------------|----------------|----------------|-0--------------|

And you know I really love you, and nothing can compare
|E-------0--------|-A/C#---------------|-E-----0---------|-A/C#---------------|
|--1--------1----|-----------0--2-|--1------1------|---------2------|
|--0-----------0-|-----2---2------|--0----------0--|-----2-----2----|
|----------------|---2---2--------|----------------|---2---2-----2--|
|----------------|-4--------------|----------------|-4--------------|
|----------------|----------------|----------------|----------------|

For all of my life you know I'll always be....
|E------0---------|-A---------------|-D---------------|-E---------------|
|--1-------3--2--|--------0-------|-------------0--|--------------0-|
|--0----------2--|-----------2-1--|---------2------|----------1-----|
|-------------2--|----------------|--0-------------|------2---------|
|----------------|----------------|------0---------|----------------|
|----------------|----------------|----------------|--0-------------|

right there....
|-0--------------|A----------------|-A----0-------5--|--D/F#2-------------|
|----------------|---------2---3--|----------------|--3-------------|
|----------------|---------2------|----------------|--2-------2-----|
|------REST------|-----2----------|----------------|--4---4---------|
|----------------|--0-------------|--0-------0-----|--0-------------|
|----------------|----------------|----------------|----------------|

A "Thankyou very much...
|----------------|--5-------------|----------------|----------------|
|------------5---|----------------|----------------|----------------|
|----------------|----------------|----------------|----------------|
|-------7--------|----LET RING----|----------------|----------------|
|----7-----------|----------------|----------------|----------------|
|-5--------------|----------------|----------------|----------------|



Chords:

EI swear to yAou

EI will aAlways be tEhere for youA 

There'sD nothing I Ewon't do.

EI promiE/G#se youA 

b All my lA/C#ife I willD 

ELive for youf

We will Dmake it thErough.



DForeAver A/C#we will Dbe togetAher yof u and Eme

EOh and when I holdA/C# you nEothing can cA/C#ompare

EWith all of my heaArt you know I'll aDlways Ebe...

Right there...A   A   D/F#      A 



EI believe inA us

ENothing eAlse could ever Emean so muchA 

DYour the one I Etrust.

OurE timE/G#e has cAome

b we're not two peA/C#ople noDw

Ewe aref one.

Yeah, Dyour second to Enone.



DForeAver A/C#we willD be togAetherf , a faEmily

EOh and when and I A/C#hold you, noEthing can coA/C#mpare

With aEll of my heaArt you know I’D;ll alEways be

Right there...A    A    D/F#       A 


(Guitar solo)



DForeAver wA/C#e will Dbe togeAther, ooh,f just you and mEe

TheE more I get to knA/C#ow you, the Emore I really carA/C#e   

With aEll of my Aheart you know I'll aDlways Ebe...

And you kEnow I really loA/C#ve you, and nEothing can A/C#compare

For alEl of my lAife you know I'll Dalways Ebe...

Right there...    A    A    D/F#       A 

(Comments would be much appreciated).


Oceń to opracowanie
Kontrybucje:
Punko
Punko
anonim