Tears don't fall Bullet For My Valentine


Intro with chorus and delay:
d:----------------------------------------------------------------------------A:----------------------------------------------------------------------------F:------9------9----9-------9----10----9------------5-------5-----5------7----
C:-7-7----7-7----7----7--7----7-----7----7-----3-3-----3-3----3-----5-5----5--
G:----------------------------------------------------------------------------
C:----------------------------------------------------------------------------

d:--------------------|
A:----6h8-------------|
F:5h7-----------------| x4
C:--------------------|
G:--------------------|
C:--------------------|

3rd time guitar 2 comes in:
d:---------------------------------------------|
A:---------------------------------------------|
F:---------------------------------------------|
C:-10-(16 times)--12-(8 times)-9-(8 times)-----|
G:---------------------------------------------|
C:---------------------------------------------|

Guitar 1
d:-----------------------------------------------|
A:-----------------------------------------------|
F:-----------------------------------------------|
C:------3----------5---------3----------5--7--5--|- figure timing out yourselves
G:------3----------5---------3----------5--7--5--|
C:------3----------5---------3----------5--7--5--|

Guitar 2:
d:--------------------------------------------------------------|
A:--------------------------------------------------------------|
F:-10-10-10-10--9--9--9--9-10-10-10-10--7-7-7-7-5-5-5-5-4-4-4-4-|
C:-10-10-10-10-10-10-10-10-10-10-10-10--------------------------|
G:--------------------------------------------------------------|
C:--------------------------------------------------------------|

d:--------------------------------------------------------------|
A:--------------------------------------------------------------|
F:-10-10-10-10--9--9--9--9-10-10-10-10--7-7-7-7-9-9-9-9-4-4-4-4-|
C:-10-10-10-10-10-10-10-10-10-10-10-10--------------------------|
G:--------------------------------------------------------------|
C:--------------------------------------------------------------|

Pre Verse thing:
d:-----------------------------------|
A:-----------------------------------|
F:-----------------------------------|
C-7^----------------------


Oceń to opracowanie
Kontrybucje:
nem
nem
anonim