0
0

Wicked Game Chris Isaak



INTRO: b -A-E
|-------------------------------| |-2----0-----------------------------|
|0b--7s0-0b--7-5-3-2-0----------| |---3----3--2------------------------|
|-----------------------2---1---| |-------------4--2--1----1--2--4b----|
|----------------------4---2----| |----------------------2-------------|
|-------------------------------| |------------------------------------|
|-------------------------------| |------------------------------------|Play 2x


.
|------------| |-----------|
|------------|Fill 1 |-----------| Fill 2
|----2---1---| |----1-2-4--|
|--4---2-----| |--2--------|
|------------| |-----------|
|------------| |-----------|

Zwrotka 1:
b A E Fill 1
The world was on fire and no one could save me but you.
b A E Fill 2
It's strange what desire will make foolish people do.
b A E Fill 1
I never dreamed that I'd meet somebody like you.
b A E Fill 2
I never dreamed that I'd love somebody like you.

Refren:
b A E Fill 1
I don't want to fall in love. (This world is only gonna break your heart)
b A E Fill 2
I don't want to fall in love. (This world is only gonna break your heart)
Part 2} {Part 2
With you. With you. (This world is only gonna break your heart)

Zwrotka 2:
b A E Fill 1
What a wicked game to play, to make me feel this way.
b A E Fill 2
What a wicked thing to do, to let me dream of you.
b A E Fill 1
What a wicked thing to say, you never felt this way.
b A E Fill 2
What a wicked thing to do, to make me dream of you and,

Refren:
b A E Fill 1
I don't want to fall in love. (This world is only gonna break your heart)
b A E Fill 2
I don't want to fall in love. (This world is only gonna break your heart)
Part 1} {Part 2
With you.

Zwrotka 3:
b A E Fill 1
The world was on fire and no one could save me but you.
b A E Fill 2
It's strange what desire will make foolish people do.
b A E Fill 1
I never dreamed that I'd love somebody like you.
b A E Fill 2
I never dreamed that I'd loose somebody like you no,

Refren:
b A E Fill 1
I don't want to fall in love. (This world is only gonna break your heart)
b A E Fill 2
I don't want to fall in love. (This world is only gonna break your heart)
Part 2} {Part 2
With you. With you. (This world is only gonna break your heart)

b A E
Nobody loves no one.


Oceń to opracowanie
Ocena czytelników: Niczego sobie 9 głosów
Kontrybucje:
Medard
Medard
anonim