0
0

Don't Panic Coldplay

Tekst piosenki i chwyty na gitarę

  • Chwyty na gitarę Daro
    10 ulubionych
Don´t Panic - Coldplay
--------------------------

a C F

Bones, sinking like stones, All that we fought for,

a C F

Homes, places we've grown, All of us are done for.



CHORUS--->

d a

And we live in a beautiful world,

e|------------------------------------------------------------------|
B|--10--10--10--10--10--10--10--10--12--12--12--12--13--13--13--13--|
G|------------------------------------------------------------------|
D|------------------------------------------------------------------|
A|------------------------------------------------------------------|
E|------------------------------------------------------------------|


G

Yeah we do, yeah we do,

e|---------------------------------15------15---|
B|--------------------------13h15-----13------13|
G|--9--9--9--9--9--9--9--9----------------------|
D|----------------------------------------------|
A|----------------------------------------------|
E|----------------------------------------------|


d a

And we live in a beautiful world

e|------------------------------------------------------------------|
B|--10--10--10--10--10--10--10--10--12--12--12--12--13--13--13--13--|
G|------------------------------------------------------------------|
D|------------------------------------------------------------------|
A|------------------------------------------------------------------|
E|------------------------------------------------------------------|

e|-----------------------------------------|
B|----------10------------------10---------|
G|--9-9h10-----9h10p9----9h10------9h10p9--|
D|-----------------------------------------|
A|-----------------------------------------|
E|-----------------------------------------|


REPEAT VERSE AND CHORUS



SOLO (Piano Arrangment for guitar)--->

e|----------------------------------------------------------------------------|
B|-----8-------------8--------------------8-------------8---------------------|
G|--9-----10--9--9-----9--10--7--5----9------10--9--9------10--9--10--9-------|
D|--10-----------10-------------------10------------10-------------------7----|
A|----------------------------------------------------------------------------|
E|----------------------------------------------------------------------------|




d a

And we live in a beautiful world,

e|------------------------------------------------------------------|
B|--10--10--10--10--10--10--10--10--12--12--12--12--13--13--13--13--|
G|------------------------------------------------------------------|
D|------------------------------------------------------------------|
A|------------------------------------------------------------------|
E|------------------------------------------------------------------|

G

Yeah we do, yeah we do,

e|---------------------------------15------15---|
B|--------------------------13h15-----13------13|
G|--9--9--9--9--9--9--9--9----------------------|
D|----------------------------------------------|
A|----------------------------------------------|
E|----------------------------------------------|


d a

And we live in a beautiful world

e|------------------------------------------------------------------|
B|--10--10--10--10--10--10--10--10--12--12--12--12--13--13--13--13--|
G|------------------------------------------------------------------|
D|------------------------------------------------------------------|
A|------------------------------------------------------------------|
E|------------------------------------------------------------------|

e|-------------------------------------12--12--12--12--12--12--12---|
B|-------10--------------10------10/13---13--13--13--13--13--13--13-|
G|--9h10----9h10p9--9h10----9h10-10/13------------------------------|
D|------------------------------------------------------------------|
A|------------------------------------------------------------------|
E|------------------------------------------------------------------|

e|-------------------------------------12--12--12--12--12--12--12---|
B|-------10--------------10------10/13---13--13--13--13--13--13--13-|
G|--9h10----9h10p9--9h10----9h10-10/13------------------------------|
D|------------------------------------------------------------------|
A|------------------------------------------------------------------|
E|------------------------------------------------------------------|

e|----------------------------------------|
B|--------10------------------10----------|
G|--9h10-----9h10p9----9h10------9h10p9---|
D|----------------------------------------|
A|----------------------------------------|
E|----------------------------------------|



a C F

Oh, all that I know, There's nothing here to run from,

a C F

'Cause everybody here's got somebody to lean on.

:)


Oceń to opracowanie
Ocena czytelników: Fatalny 2 głosy
Kontrybucje:
Daro
Daro
anonim