0
0

Ostrość na nieskończoność Coma


Autor: Szalony Szeryf
Kontakt: ss@spartan7.pl
Strojenie pół tonu niżej.
Tab nie jest kompletny, tylko intro jest rozbite na dwie gitary,
ale można zagrać. Na moim akustyku, ładnie brzmi.
Brakowało mi tej piosenki, dlatego postanowiłem
się za nią zabrać, niestety mój staż gitarowyto ledwo rok, więc sami wiecie.
Wszelkie poprawki mile widziane.
Aha, nie wszędzie uzupełniałem dokładną ilość dźwięków i tego ile razy się partia
powtarza.
Intro:
Git. A
|-------------------------------------|
|--5--8-7-10-8-7-8--8-7-5-------------|
|-------------------------------------|
|-------------------------------------|
|-------------------------------------|
|-------------------------------------|
Git B - riff, mniej więcej tak:
|-------------------------------------|
|-------------------------------------|
|-------------------------------------|
|-----44-22222------44-22222----------|
|-222-33-00000--222-33-00000----------|
|-000-----------000-------------------|
Przejście, + -, na dźwiękach E i D
|-------------------------------------|
|-------------------------------------|
|-------------------------------------|
|--99-7-------------------------------|
|--77-5-------------------------------|
|-------------------------------------|
Zwrotka:
|-------------------------------------|
|-------------------------------------|
|-------------------------------------|
|-----5555-4--------------------------| x3
|-222-3333-2--------------------------|
|-000---------------------------------|
|-------------------------------------|
|-------------------------------------|
|-------------------------------------|
|-----7777-4--------------------------|
|-222-5555-2--------------------------|
|-000---------------------------------|
Przejście, j.w. :
Przygrywka na cleanie, w WIELKIM uproszczeniu:
|----12-12-14-15-14-12--12--14--15-----|
|---12---------------------------------|
|--12----------------------------------|
|-14-----------------------------------|
|--------------------------------------|
|--------------------------------------|
Zaniemogły ze strachu:
e, C ... można power chordem, można normalnie
W momencie:
W każdą stronę, rozbiegły się...
jest a (chyba)
Jeśli nie gramy riffem, to najlepiej zagrać go tak:
-
-
2
2
-
-
Przejście, przed "Znam..."
|-------------------------------------|
|-------------------------------------|
|-------------------------------------|
|----------7-10-9-10-10-9-------------|
|--87-7777----------------------------|
|-------------------------------------|
Refren: Czyli "Znam..."
e, C, D
|-------------------------------------|
|-------------------------------------|
|----5--7-----------------------------|
|-2--5--7-----------------------------|
|-2--3--5-----------------------------|
|-0-----------------------------------|
Przejście:
|--------------------------------------------|
|--------------------------------------------|
|--------------------------------------------|
|--------------------------------------------|
|-222-10-10-10-10-10-9-22-14-14-14-14-14-12--|
|-000------------------00--------------------|
Na koniec dźwięk e .
I teraz ta spokojna część na cleanie. Ilość tych wysokich dźwięków - brzędków, jest większa niż napisałem.

|-----------------12-12-12----------------------|
|--8-7-8--7-8-5------------12-12-12--8-8-8------|
|------------------------------------------9-9-9|
|-----------------------------------------------|
|-----------------------------------------------|
|-------------12-12-12----------------------|
|-8-8-8---------------12-12-12--8-8-8-------|
|-------7-7-7-------------------------9-9-9-|
|-------------------------------------------|
|-------------------------------------------|
|-------------------------------------------|
|-----------------------8--7-5-3------|
|-------------8-8-8-----10-8-7-5------|
|-7-7-7------------7-7-7--------------|
|------9-9-9--------------------------|
|-------------------------------------|
|-------------------------------------|
|-------------------------------------|
|------------8--7-5---3--5-7------------|
|-5--7-8-7---10-8-7--5--7--8------------|
|-------------------5--7----------------|
|---------------------------------------|
|---------------------------------------|
|---------------------------------------|

Pod koniec:
|----3--3-----------------------------|
|---5--7------------------------------|
|--5--7-------------------------------|
|-------------------------------------|
|-------------------------------------|
|-------------------------------------|
Końcówka:
e"Znam..."
C"Drogi.."
"wDiodącę.."
e"do dna.."
itd.
eTen..
Dwszystkim..
CJa
Dwybrać..
ejak
I tak do końca. Końcówkę gramy najpierw akordami, a w mocniejszych fragmentach power chordami.






Oceń to opracowanie
Ocena czytelników: Słaby 1 głos
Kontrybucje:
Szalony Szeryf
Szalony Szeryf
anonim
  • Szalony Szeryf
    Oczywiście ta głupia strona rozmyła tab... Dobrze, że są jeszcze inne stronki..
    · Zgłoś · 16 lat temu