Popraw Opracowanie
Transponuj
0

No Time to Cry Cradle Of Filth

intro
|-----------------------------------------------------------------------|
|-----------------------------------------------------------------------|
|-----------------------------------------------------------------------|
|-2-------545-------------------2-------545-----------------------------|
|-------------------3---------------------------------0-----------------|
|-----------------------------------------------------------------------|
let 'em ring nice an' soft


riff 1
"aahahhahahaahahaaahah ooh ooh ooh ooh"
|---------------------------------------------------------|
|---------------------------------------------------------|
|---------------------7-6-7-5---7-6-7---------------------|
|-----9-8-9-7-9-10----7-6-7-5---7-6-7-7-------------------|
|-----7-6-7-5-7-8-----5-4-5-3---5-4-5-7----7s5-0-h4s5s4-2-|
|-0-0---------------------------------5----5s3-0-h2s3s2-0-|
                 pm         pm        pm                pm


riff 2
"its just a feeling..."
|---------------------------|------------------------|
|---------------------------|------------------------|
|---------------------------|------------------------|
|-9-----------------5-4--5--|--9---------------------|
|-9-----------------3-2--3--|--9-----------------5-4-|
|-7-----000000--3-2---------|--7-----000000-3-00-3-2-|


riff 3
i like this riff, and yes those are tens, not zeros and ones
"something something..just like you..."
|------------------------------|--------------------------------|
|------------------------------|--------------------------------|
|------------------------------|--------------------------------|
|-------10101010-9999-10101010-|--7777--10101010-9999-10101010--|
|-7777-------------------------|--------------------------------|
|------------------------------|--------------------------------|
		2x				1x

|-----------------------|
|-----------------------|
|-----------------------|
|--66666----6-7-9-7-6-7-|
|-----------------------|
|-----------------------|
	        1x


riff 4 - chorus
"no time for something, no time for something"
(i have no idea what dani is saying now)
|-----------------------------|------------------------------|
|-----------------------------|------------------------------|
|-----------------------------|------------------------------|
|-2-----2-----2-------7-5---7-|--2-----2-----2-------7-5-----|
|-2-----2-----2---------------|--2-----2-----2-------------7-|
|-0-00--0-00--0-00------------|--0-00--0-00--0-00------------|
  pm    pm    pm		 pm    pm    pm


Oceń to opracowanie

Kontrybucje
Gepuś

Wakacyjny Konkurs Śpiewnikowy

Pula nagród w konkursie ponad 10.000 zł!
Przysyłaj opracowania piosenek i zdobądź bony na zakupy w sklepie muzycznym.
Zapoznaj się z regulaminem konkursu.
anonim