0
0

I Remember Damien Rice

Tekst piosenki i chwyty na gitarę

  • Chwyty na gitarę maryna
    1 ocena
Tabulatura do części pierwszej. Część druga (od "Come all ye lost") leci akordami.

Zwrotka:

I remember... ...time... ...saw... ...head... ...mine...
|-----------------------------------------------------------------------------------------------------------------------------|
|-------2---------------3------------3------------3-----------3--------------------------3----------------3----------3---|
|----3--------2------0---0--------0---0-------2---2------0---0-------------2-------0---------2------0--0------0--0--|
|-----------0-------0------0-----2------2----0------0---2------2---------0---0--------------0------2-----2---2-----2-|
|------------------------------3-------------------------3------------------0------0------------------3----------3---------|
|-0------2-------3--------------------------2------------------------0--2----------0-------2------------------------------|



Refren:
I want you hear tonight... ...down...
|------------------------------------------------------------------------------------------------------------------|
|-----------3---------3----------3----------3-----------3----------3---------3---------------------------------|
|---------0--0------2--2------0--0-------0--0-------0--0------2--2------0----------0-----0------0---------|
|-------0------0--0-----0---2------2---2-----------0-----0---0-----0---2-----2----0-----0------2--2------|
|-2-3--------------------------------------------------------------------------------------------------2-----2---|
|-----3----------2---------0-----------0--------0--3---------2---------0-----------3-----2-----0--------0---|



e7I reDmember it well G 
The first timeCadd9 that I saw D 
Your headCadd9 around the door      D 
'Cause mine e7stopped Dworking...   Cadd9     

e7I reDmember it well G 
I was stoCadd9od in a stairD 
there was wet inCadd9 your hair    D 
And timee7 stoppeDd moving... Cadd9     

I want you hear toGnight
I want you hear   D 
'Cause I can'te7 believe what I found
I want you hear toGnight
I want you hear   D 
e7Nothing is taking me down, down,G down...  D        e 

e7I remDember it well G 
Taxied outCadd9 of a stormD 
To waCadd9tch you perform  D 

And my ships we7ere sailDing   Cadd9     

e7I reDmember it well G 
I was stoCadd9od in your line  D 
And your mouth, Cadd9your mouth, youDr mouth...         G  Cadd9     

I want you hear tGonight
I want you hear  D 
'Cause I can'te7 believe what I found
I want you hear tGonight
I want you hear  D 
e7Nothing is taking me down, down, Gdown...  D         e 

ExceDpt you my love. Exceept you my lDove...            e 

aCome all ye lost

Dive into moss
I Fhope that my sanity covers the cost
To removed the stain of my love            E 
a (hammer) (E)
Paper mache

aCome all ye reborn

Blow off my horn
I'm drFiving real hard

This is love, this is porn
Gdod will forgive me
E a (hammer)
But I, I whip myself with scorn, scorn

I wanna hear wahat you have to say about me
HFear if you're gonna live without me
I wanna hear wdhat you want           E 
a (hammer)
I remember december
And I wanna hear whata you have to say about me
HeFar if you're gonna live without me
I wanna hear wdhat you want           E 
a (hammer)
What the hell do you want?


Oceń to opracowanie
Ocena czytelników: Fatalny 1 głos
Kontrybucje:
maryna
maryna
anonim