0
0

Unplayed Piano Damien Rice

Tekst piosenki i chwyty na gitarę

  • Chwyty na gitarę Dalila
Unplayed Piano Chords by Damien Rice, www.Ultimate-Guitar.Com

Capo 2nd Fret


Chord shapes relative to capo


Intro and Verse

e--0----0--0-------------|

B--0----1----3-1---------|

G--0----2----------------| Verse

D--2----3----------------|

A--3----3----------------|

E--x----1----------------|



C7+ F7+





Repeat Phrase 1 until Bridge "The moon grows bright, the darker...etc"





e--0----0----3--|

B--1----1----0--|

G--2----2----0--| Bridge

D--2----3----0--|

A--0----3----2--|

E--x----1----3--|



ain F7+ G





The Chorus is very similar to verse but without the 3 note run in F7+



e--0----0--|

B--1----1--|

G--0----2--| repeat x2 then C chord

D--2----3--|

A--3----3--|

E--x----1--|



C F7+





On "silent song"



e--0----x----0--|

B--1----3----1--|

G--2----0----2--| repeat x1

D--2----0----3--|

A--0----2----3--|

E--x----x----1--|



ain G/B F7+





Hold Fmaj7 then back into verse, then bridge, then Chorus x 2



End on verse chords


Oceń to opracowanie
Kontrybucje:
Dalila
Dalila
anonim