Wakacyjny Konkurs Śpiewnikowy
Wakacyjny Konkurs Śpiewnikowy
Popraw Opracowanie Usuń
Transponuj
0

Life For Rent Dido

Tekst piosenki i chwyty na gitarę

Capo 3

The following tab is used for verse 1 (verse 2 is just rhythm,as is the chorus
and the bridge).

  a               F                a               F
e|------0-----0-x-|------1-----1-x-|------0-----0-x-|------1-----1-x-| |
B|------1-----1-x-|------1-----1-x-|------1-----1-x-|------1-----1-x-|o|
G|----2-------2-x-|------2-----2-x-|----2-------2-x-|------2-----2-x-| |
D|--2---------2-x-|----3-------3-x-|--2---------2-x-|----3-------3-x-| |
A|0-----------0---|--3---------3---|0-----------0---|--3---------3---|o|
E|----------------|1-----------1---|----------------|1-----------1---| |

  d               G7
e|------1-----1---|------3---------|
B|----3-------3---|----3-----------|
G|--2---------2---|----------------|
D|0-----------0---|--3-------------|
A|----------------|----------------|
E|----------------|3---------------|

---

I ahaven't really ever found a place that I call Fhome
I anever stick around quite long enough to Fmake it
I aapologise that once again I'm not in Flove
But it's not as if I amind that your heart ain't exactly Fbreaking
It's just a dthought, only a G7thought

But if my Clife_G__ is for Frent
and I Cdon't Glearn to Fbuy G
Well I deCserve nothing Gmore than I Fget G
'Cos nothing I Chave_G__ is truly Fmine

I've aalways thought that I would love to live by the Fsea
To atravel the world alone and live more Fsimply
I have ano idea what's happened to that Fdream
'Cos there's areally nothing left here to Fstop me
It's just a dthought, only a G7thought

But if my Clife_G__ is for Frent
and I Cdon't Glearn to Fbuy G
Well I deCserve nothing Gmore than I Fget G
'Cos nothing I Chave_G__ is truly Fmine

But if my Clife_G__ is for Frent
and I Cdon't Glearn to Fbuy G
Well I deCserve nothing Gmore than I Fget G
'Cos nothing I Chave_G__ is truly Fmine

While my Cheart is a Gshield and I dwon't let it Gdown
While I am Cso afraid to Gfail so I dwon't even Gtry
Well how can dI say I'm aG7live?

But if my Clife_G__ is for Frent
and I Cdon't Glearn to Fbuy G
Well I deCserve nothing Gmore than I Fget G
'Cos nothing I Chave_G__ is truly Fmine

If my Clife_G__ is for Frent
and I Cdon't Glearn to Fbuy G
Well I deCserve nothing Gmore than I Fget G
'Cos nothing I Chave_G__ is truly Fmine
Nothing I Chave_G__ is truly Fmine
Nothing I Chave_G__ is truly Fmine
'Cos nothing I Chave_G__ is truly Cmine

Am,F,Dm,G7,C,G
Oceń to opracowanie

Kontrybucje
damballa

Wakacyjny Konkurs Śpiewnikowy

Pula nagród w konkursie ponad 10.000 zł!
Przysyłaj opracowania piosenek i zdobądź bony na zakupy w sklepie muzycznym.
Zapoznaj się z regulaminem konkursu.
anonim

Aktualności Dido