0
0

Zehne kleine jegermeister Die Toten Hosen

Tekst piosenki i chwyty na gitarę

  • Chwyty na gitarę Początkujący Tonacja G
    1 ulubiony
GEin kleiner Jägermeister Cwar nich Dgern allGein,
drum Clud er Dsich zum GWeihnachtsCfest neun aJägerDmeister Gein.


e|-----------------------------------------------------|
B|-----------------------------------------------------|
G|-----------------------------------------------------|
D|-------------------2-2----------------------2--------|
A|-----------2-5---5-----5-5----------2-5---5---5------|
E|---3---3----------------------3---3------------------|

e|-----------------------------------------------------|
B|-----------------------------------------------------|
G|-----------------------------------------------------|
D|-------------------2-2------------------2------------|
A|-----------2-5---5-----5-5----------2-5---5-2--------|
E|---3---3----------------------3---3-----------3------|


GZehn kleine Jägermeister Crauchten Deinen GJoint
Den Ceinen Dhat es Gumgehaun, da awarens Dnur noch Gneun

GNeun kleine Jägermeister Cwollten Dgerne Gerben
DaCmit es Dwas zu Gerben gab, mußate eiDner steGrben

GAcht kleine Jägermeister Cfuhren Dgerne Gschnell
CSieben Dfuhrn nach GDüsseldorf, aeiner Dfuhr nach GKöln

Ref.
GEiner für alle, alle für Deinen
Wenn einer fort ist, wer wird denn gleich Gweinen
Einmal triffts jeden, ärger dich nichtC 
So gehts im Leben, Ddu oder Gich

GSieben kleine Jägermeister Cwarn beim DRendezGvous
Bei Ceinem Dkam ganz Gunverhofft der aEheDmann hinGzu

GSechs kleine Jägermeister Cwollten DSteuern Gsparn
CEiner Dwurde Geingelocht, fünf adurften DnachbeGzahln

GFünf kleine Jägermeister Cwurden DkontroGlliert
Ein CPoliDzist nahms Gzu genau, da awarn sie Dnoch zu Gviert

Ref.
GEiner für alle, alle für Deinen
Wenn einer fort ist, wer wird denn gleich Gweinen
Einmal triffts jeden, ärger dich nichtC 
So gehts im Leben, Ddu oder Gich
CEinmal muß Gjeder gehn,und Dwenn dein Herz zerbGriAchBC 
CDavon wird die Welt nicht Guntergehn,mensch Därger dich Gnicht

GVier kleine Jägermeister Cbei der DBundesGwehr
Sie Ctranken Dum die GWette, den abesten Dgibts nicht Gmehr

GDrei kleine Jägermeister Cgingen Dins LoGkal
Dort Cgabs zwei DSteaks mit GBohnen und aeins mit DRinderGwahn

GZwei kleine Jägermeister Cbaten Dum AGsyl
CEiner Dwurde Gangenommen, der aandre Dwar zu Gviel

Ref.
GEiner für alle, alle für Deinen
Wenn einer fort ist, wer wird denn gleich Gweinen
Einmal triffts jeden, ärger dich nichtC 
So gehts im Leben, Ddu oder Gich
CEinmal muß Gjeder gehn,und Dwenn dein Herz zerbGriAchBC 
CDavon wird die Welt nicht Guntergehn,mensch Därger dich Gnicht

GEiner für alle, alle für Deinen
Wenn einer fort ist, wer wird denn gleich Gweinen
Einmal triffts jeden, ärger dich nichtC 
So gehts im Leben, Ddu oder Gich
CEinmal muß Gjeder gehn,und Dwenn dein Herz zerbGriAchBC 
CDavon wird die Welt nicht Guntergehn,mensch Därger dich Gnicht

GEin kleiner Jägermeister Cwar nicht Dgern Gallein
'drum Clud er Dsich zum GOsterfest
Neun Dneue Meister Gein

Oceń to opracowanie
Kontrybucje:
piter4438
piter4438
anonim