0
0

IDGAF Dua Lipa

Tekst piosenki i chwyty na gitarę

  • Chwyty na gitarę meg
    7 ulubionych

e  You call me, D all friendly
G  Tellin' me hCow much you miss me
e  That's funnDy
I guess you've hb eard my sCongs, well


e  I'm too busDy for your business
G  Go find a gCirl who wants to listen
e 'Cause if you think
DI was born yesterday
You have gb ot me wrCong

E|e -------xD-------xG-----7-xC-------x----------|
B|-----8-x-----7-x-------x-----5-x----------|
G|-------x-------x---7---x-------x----------|
D|---9---x---7---x-5-----x---5---x----------|
A|-7-----x-5-----x-------x-3-----x----------|
E|-------x-------x-------x-------x----------|

E|e -------xD-------xb -------xC-------x----------|
B|-----8-x-----7-x-----3-x-----5-x----------|
G|-------x-------x-------x-------x----------|
D|---9---x---7---x---4---x---5---x----------|
A|-7-----x-5-----x-2-----x-3-----x----------|
E|-------x-------x-------x-------x----------|

So I cut you e off
I dDon't need your love
G  'Cause I alrCeady cried enough
I've been de one
I've bDeen movin' on
Sb ince we said gCoodbye
I cut you e off
I dDon't need your love
G  So you can try Call you want
e  YDour time is up
I'll tb ell you whCy

You se ay you're sDorry
But it's tGoo late nCow
So se ave it, gDet gone, shut b up  C 
'Cause e if you thDink
I care abGout you nCow
Well, be oy, I dDon't give a fb uck C 

E|e -------xD------------G-----7-xC---------0----|
B|-----8-x-----7---7---------x-----5---5----|
G|-------x---------------7---x---------0----|
D|---9---x---7-----7---5---5-x---5-----5----|
A|-7---7-x-5-----5-5-5-------x-3-----3-3-3--|
E|-------x-------------------x--------------|

E|e -------xD------------G-------xC---------0----|
B|-----8-x-----7---7-------3-x-----5---5----|
G|-------x-------------------x---------0----|
D|---9---x---7-----7-----4---x---5-----5----|
A|-7---7-x-5-----5-5-5-2---2-x-3-----3-3-3--|
E|-------x-------------------x--------------|


e  I remembDer that weekend
G  When my best frCiend

Caught you creepin'
e  You blamDed it all on the b alcohCol, so

e  I made mDy decision
G  'Cause you made yCour bed, sleep in it
e  Play the victDim

And switch your position
I'm thrb ough, I'm dCone

So I cut you e off
I dDon't need your love
G  'Cause I alrCeady cried enough
I've been de one
I've bDeen movin' on
Sb ince we said gCoodbye
I cut you e off
I dDon't need your love
G  So you can try Call you want
e  YDour time is up
I'll tb ell you whCy

You se ay you're sDorry
But it's tGoo late nCow
So se ave it, gDet gone, shut b up  C 
'Cause e if you thDink
I care abGout you nCow
Well, be oy, I dDon't give a fb uck C 

I see you tryna ge et to me D 
I see you begging Gon your knCees
Be oy, I dDon't give a fb uck C 
So stop tryna ge et to me D 
Get up Goff your knCees
Be oy, I dDon't give a fb uck oh Coh

About ye ou  D 
No, I don't gGive a damn C 
Ye ou keep remDiniscin' on when
Yb ou were my mCan
But I'm over ye ou  D 
Now you're Gall in the pCast
Ye ou talk all thDat sweet talk
But I b ain't comin' bCack

Cut you e off
I dDon't need your love
G  So you can try Call you want
e  YDour time is up
(pausa)
I'll tell you why

You se ay you're sDorry
But it's tGoo late nCow
So se ave it, gDet gone, shut b up  C 
'Cause e if you thDink
I care abGout you nCow
Well, be oy, I dDon't give a fb uck C 

I see you tryna ge et to me D 
I see you begging Gon your knCees
Be oy, I dDon't give a fb uck C 
So stop tryna ge et to me D 
Get up Goff your knCees
Be oy, I dDon't give a fb uck oh Coh

Oceń to opracowanie
Ocena czytelników: Niczego sobie 1 głos
Kontrybucje:
meg
meg
anonim