Bring Me To Life (Accoustic) Evanescence

Tekst piosenki

  • Tekst piosenki Robert
    11 ulubionych
==============================================================
Chwyty:

Em =[(E-A-D-G-B-e)] x-7-9-9-8-7 -> 7e fret
Em = 0-2-2-0-0-0
G = 3-2-0-0-0-3
D = x-x-0-2-3-2

C* = 3-3-2-0-1-0
D* = 5-5-4-0-3-0

Em =[(E-A-] 0-14-D-14-G)12
C = x-0- 10-9
D = 0-12-10-11

==============================================================

2x

e|--e ----------------------------------------|-
B|-------------------------------8-8-8--x---|-
G|-------------------------------0-0-0--x---|-
D|--9-7h9-9--9-9-9h10-10p9-9--7--9-9-9--x---|-
A|--7-7-7-7--7-7-7-7--7--7-7--7--7-7-7--x---|-
E|--0-0-0-0--0-0-0-0--0--0-0--0--0-0-0--x---|-


VERSE 1:
how can you see into my eyes like open doors
leading you down into my core
where i've become so numb without a soul my spirit sleeping somewhere cold
until you find it there and lead it back home wake me up inside

REFREIN:

e ___wake me up inGside
___wake me up iDnside
call my name and e save me from the dark
bid my blood to Grun
before i come unDdone
Em (Intro 1x)
save me from the nothing i've become

VERSE 2:
now that i know what i'm without
you can't just leave me
breathe into me and make me real

bring me to life

e ___wake me up inGside
___wake me up iDnside
call my name and e save me from the dark
bid my blood to Grun
before i come unDdone
save me from the ne othing i've,

Riff3
e|--[C*]----------------[D*]------------------------------------------|-
B|--1--1-1-x-------3--3-3-x-----------------------------------|-
G|--0--0-0-x-------0--0-0-x--------0-0-x-0-0-x-0-0-x--0-0-x---|-
D|--2--2-2-x-------4--4-4-x--------2-2-x-2-2-x-2-2-x--2-2-x---|-
A|--3--3-3-x-------5--5-5-x--------2-2-x-2-2-x-2-2-x--2-2-x---|-
E|--3--3-3-x-------5--5-5-x--------0-0-x-0-0-x-0-0-x--0-0-x---|-
become____ Bring me to life_________________

e|--[C*]----------------[D*]------------------------------------------|-
B|--1--1-1-x-------3--3-3-x-----------------------------------|-
G|--0--0-0-x-------0--0-0-x--------0-0-x-0-0-x-0-0-x--0-0-x---|-
D|--2--2-2-x-------4--4-4-x--------2-2-x-2-2-x-2-2-x--2-2-x---|-
A|--3--3-3-x-------5--5-5-x--------2-2-x-2-2-x-2-2-x--2-2-x---|-
E|--3--3-3-x-------5--5-5-x--------0-0-x-0-0-x-0-0-x--0-0-x---|-
Bring_me to life_________________


BRIDGE:

e|--E--Fis----G----B---|--C---------------------e ---------------------D-------------------------|-
B|---------------|-(0)-(0)-----(0)-------0--0---0--0---0--0----------------------------|-
G|---------------|--9---9--9----9--9-----12-12--12-12--12-12--11-11-11-11-11---0-0-----|-
D|--2--4--5-5/9--|--10--10-10---10-10----14-14--14-14--14-14--10-10-10-10-10---2-2-----|-
A|--2--x--x-x----|--0---0--0----0--0-----14-14--14-14--14-14--12-12-10-12-12---2-2-----|-
E|--0--2--3-3/7--|--x---x--x----x--x-----0--0---0--0---0--0---0--0--0--0--0----0-0-----|-

frozen_______________ inside without your touch without your__

e|--E--Fis----G----B---|--C---------------------e ---------------------D---------------------------------------|-
B|---------------|-(0)-(0)-----(0)-------0--0---0--0---0--0--------------------x-----x-----x----x----|-
G|---------------|--9---9--9----9--9-----12-12--12-12--12-12--11-11-11-11-11---x-----x-----x----x----|-
D|--2--4--5-5/9--|--10--10-10---10-10----14-14--14-14--14-14--10-10-10-10-10---x-----x-----x----x----|-
A|--2--x--x-x----|--0---0--0----0--0-----14-14--14-14--14-14--12-12-10-12-12---x-----x-----x----x----|-
E|--0--2--3-3/7--|--x---x--x----x--x-----0--0---0--0---0--0---0--0--0--0--0----x-----x-----x----x----|-

love darling___ only________________ you________ are the life among the dead___________________

e ___wake me up inGside
___wake me up iDnside
(BREAK)
call my name and save me from the dark
bid my blood to Grun
before i come unDdone
Em (Riff3)
save me from the nothing i've become

Bring me to life...

Hmmmhmmm bring me to life..


Oceń to opracowanie
Historia
Kontrybucje:
Robert
Robert
anonim