Popraw Opracowanie
Transponuj
0

Understanding (bass) Evanescence

Tekst piosenki

  • Tekst piosenki damballa
Tuning: Full Step Down (A D G C F)

this is the original verfion from the sound asleep EP 2000

verses/chorus
F|--------------------------------------------------------||
C|--------------------------------------------------------||
G|--------------------------------------------------------||
D|5-5p4h5-5-6h7-------------------------------------------||
A|-------------5-5p4h5-5-6h7------------------------------||

F|--------------------------------------------------------||
C|--------------------------------------------------------||
G|--------------------------------------------------------||
D|--------------------------------------------------------||
A|3-3p2h3-3-4h5-1-1p0h1-1h2h3b----------------------------||

bridge(when the song turns hard) x1
F|--------------------------------------------------------||
C|--------------------------------------------------------||
G|--------------------------------------------------------||
D|5555555555555555555555----------------------------------||
A|----------------------5555555555555555555555------------||

F|--------------------------------------------------------||
C|--------------------------------------------------------||
G|--------------------------------------------------------||
D|----------------------111111111111111111111-------------||
A|3333333333333333333333----------------------------------||

F|--------------------------------------------------------||
C|--------------------------------------------------------||
G|--------------------------------------------------------||
D|--------------------------------------------------------||
A|0-1-0-1-0-1-0-1-0-1-0-1-0-1-0-1-0-1-0-1-0-1-------------||

outro(when amy begins to sing) x4
F|--------------------------------------------------------||
C|--------------------------------------------------------||
G|--------------------------------------------------------||
D|5555555555555555555555----------------------------------||
A|----------------------5555555555555555555555------------||

F|--------------------------------------------------------||
C|--------------------------------------------------------||
G|--------------------------------------------------------||
D|----------------------111111111111111111111-------------||
A|3333333333333333333333----------------------------------||

2nd outro x4
F|--------------------------------------------------------||
C|--------------------------------------------------------||
G|--------------------------------------------------------||
D|5555555555555555555555----------------------------------||
A|----------------------5555555555555555555555-1-3-5-7----||

end(but the aswers is always there...)
F|-------------------------------------||
C|-------------------------------------||
G|-------------------------------------||
D|5~----------------------5~-----------||
A|-------------------------------------||repeat until end

Oceń to opracowanie

Kontrybucje
damballa

Wakacyjny Konkurs Śpiewnikowy

Pula nagród w konkursie ponad 10.000 zł!
Przysyłaj opracowania piosenek i zdobądź bony na zakupy w sklepie muzycznym.
Zapoznaj się z regulaminem konkursu.
anonim