0
0

Żółty rower Formacja Nieżywych Schabuff

Tekst piosenki i chwyty na gitarę

  • Chwyty na gitarę Losseh
    5 ulubionych
intro
e-|-h--2-3-2---D----2-3-2-----G----2-3-2---------3---A--------|
B-|--0-----0----3-------3-----3-------3---------3-----3-2-|
G-|-4-------4-2-----------2-0-----------0-----------------|
D-|-------------------------------------------------2-----|
A-|-----------------------------------------2-----0-------|
E-|---------------------------------------3---------------|

normal verse
e-|-h--------------D-------------G---3---3-------3---A----7p5-|
B-|-----10-10p7-------7-5-7-------3---3-------3-------5---|
G-|---7---------7---7-------7---4---4---4---4---4---6-----|
D-|-9-------------7-----------5-----------5-------7-------|
A-|-------------------------------------------------------|
E-|-------------------------------------------------------|

last part in the verse
e-|-h-------------D-------G3-----3-----5-A----7---------------|
B-|-----10--10-8-7------3---3-3-----3-----5---------------|
G-|---7-----7--7-7--2-4---4-------4-----6-----------------|
D-|-9---------------------------5-----7-------------------|
A-|-------------------------------------------------------|
E-|-------------------------------------------------------|

pre refrain
E G6(e highest)
e-|-------0------0-------------0-----0--------------------|
B-|-----0----0-----0---------3---3-----3------------------|
G-|---1--------1-----1-----0-------0-----0----------------|
D-|-2--------------------0--------------------------------|
A-|-2--------------------2--------------------------------|
E-|-0--------------------3--------------------------------|

refrain
e-|---------------------5-3-2-2-0-----9h10----------------|
B-|-------7-5s3-2-3---3-------3---3--10-------------------|
G-|-4---4-----------2---------0------------7-7s9~~~-------|
D-|---4---------------------------------------------------|
A-|-------------------------------------------------------|
E-|-------------------------------------------------------|

e-|-----------------------5-3--------14-12-10--9h10-10-s12|
B-|-------7-5h7p5-3-3h5-3-----3-2-3--15-12-12-10----10-s12|
G-|-4---4----------------------------12-12-12--9----------|
D-|---4---------------------------------------------------|
A-|-------------------------------------------------------|
E-|-------------------------------------------------------|

2nd verse beginning
e-|---<7>----------------------7--------------------------|
B-|---<7>------------------------7---7--------------------|
G-|---<7>-------7---7h9-9~~~-------7---7---7--------------|
D-|-9-------7h9---9----------------------7---7------------|
A-|--------------------------------------------9----------|
E-|-------------------------------------------------------|
later such as 1st verse

solo
e-|---5s7-----5-------------------------2---------5s7-7s5-|
B-|---5s7-5h7---7-------8-7~~---------3---5p3-2---5s7-7s5-|
G-|-4-----------------7-----7-------4-----------2---------|
D-|-----------------5---------4-4h5-----------------------|
A-|-------------------------------------------------------|
E-|-------------------------------------------------------|

e-|---5s7-----5---------5s3-2-------2h3-5-3-2-0-0h2-2-----|
B-|---5s7-5h7---7-----------------------------------2-----|
G-|-4---------------7-------------4-----------------3-----|
D-|-----------------7---------4-5-------------------4-----|
A-|-------------------------------------------------4-----|
E-|-------------------------------------------------2-----|

e-|---5s7-----5-------------------------2---------5s7-7s5-|
B-|---5s7-5h7---7-------8-7~~---------3---5p3-2---5s7-7s5-|
G-|-4-----4-----------7-----7-------4-----------2---------|
D-|-----------------5---------4-4h5-----------------------|
A-|-------------------------------------------------------|
E-|-------------------------------------------------------|

e-|--5s7-----5---------------------0-12---10-9------------|
B-|--5s7-5h7--7-----10-8-7-7h8---8-------------12 11------|
G-|-4-------------7------------0--------0------------12-11|
D-|-------------7-----------------------------------------|
A-|-------------------------------------------------------|
E-|-------------------------------------------------------|
outro (same as into with h2 in the end)
e-|-h--2-3-2---D--2-3-2---G--2-3-2------3--A----------hsus2--------|
B-|--0-----0---3-----3---3-----3------3-----3-2----2------|
G-|-4-------4-2-------2-0-------0------------------4------|
D-|--------------------------------------2---------4------|
A-|--------------------------------2----0----------2------|
E-|-------------------------------3-----------------------|




Oceń to opracowanie
Ocena czytelników: Niczego sobie 2 głosy
Kontrybucje:
Losseh
Losseh
anonim