Bloody valentine Good Charlotte



Intro:
e|--------------5------------------------------------------------
b|--------------5------------------------------------------------
g|--------------5------------------------------------------------
d|7-2-4-0-7-2-4---0-0-0-0-0-0-0-0-2-2-2-2-2-2-2-2-4-4-4-4-4-4-4-4
a|7-2-4-0-7-2-4---0-0-0-0-0-0-0-0-2-2-2-2-2-2-2-2-4-4-4-4-4-4-4-4
d|7-2-4-0-7-2-4---0-0-0-0-0-0-0-0-2-2-2-2-2-2-2-2-4-4-4-4-4-4-4-4

e|---------------
b|---------------
g|---------------
d|6-6-6-6-6-6-6-6
a|6-6-6-6-6-6-6-6
d|6-6-6-6-6-6-6-6

Verse 1
P.M
e|-----------------------------------------------------------
b|-----------------------------------------------------------
g|-----------------------------------------------------------
d|7-7-7-7-7-7-7-7-0-2-2-2-2-2-2-2-2-0-7-7-7-7-7-7-7-7-0-2-2-2-2-2-2-2
a|7-7-7-7-7-7-7-7-0-2-2-2-2-2-2-2-2-0-7-7-7-7-7-7-7-7-0-2-2-2-2-2-2-2
d|7-7-7-7-7-7-7-7-0-2-2-2-2-2-2-2-2-0-7-7-7-7-7-7-7-7-0-2-2-2-2-2-2-2

e|---------------------------------------------
b|---------------------------------------------
g|---------------------------------------------
d|7-7-7-7-7-7-7-7-0-2-2-2-2-2-2-2-2-0-0-0-0-0-0-0-0
a|7-7-7-7-7-7-7-7-0-2-2-2-2-2-2-2-2-0-0-0-0-0-0-0-0
d|7-7-7-7-7-7-7-7-0-2-2-2-2-2-2-2-2-0-0-0-0-0-0-0-0

P.M
e|-----------------------------------------------------------
b|-----------------------------------------------------------
g|-----------------------------------------------------------
d|7-7-7-7-7-7-7-7-0-2-2-2-2-2-2-2-2-0-7-7-7-7-7-7-7-7-0-2-2-2-2-2-2-2
a|7-7-7-7-7-7-7-7-0-2-2-2-2-2-2-2-2-0-7-7-7-7-7-7-7-7-0-2-2-2-2-2-2-2
d|7-7-7-7-7-7-7-7-0-2-2-2-2-2-2-2-2-0-7-7-7-7-7-7-7-7-0-2-2-2-2-2-2-2

e|---------------------------------------------
b|---------------------------------------------
g|---------------------------------------------
d|7-7-7-7-7-7-7-7-0-2-2-2-2-2-2-2-2-0-0-0-0-0-0-0-0
a|7-7-7-7-7-7-7-7-0-2-2-2-2-2-2-2-2-0-0-0-0-0-0-0-0
d|7-7-7-7-7-7-7-7-0-2-2-2-2-2-2-2-2-0-0-0-0-0-0-0-0

Pre-Chorus:
e|-----------------------------------------------------------
b|-----------------------------------------------------------
g|-----------------------------------------------------------
d|4--0--6-7----4-4-4-4-4----2-2-2-2-2-----0-0-0-0-0-0-0-0-0-0
a|4--0--6-7----4-4-4-4-4----2-2-2-2-2-----0-0-0-0-0-0-0-0-0-0 X2
d|4--0--6-7----4-4-4-4-4----2-2-2-2-2-----0-0-0-0-0-0-0-0-0-0
First 4 p.m then open/
On above chords


Chorus:

e|---------------------------------
b|---------------------------------
g|---------------------------------
d|7-7-7-7-7-7-7-7-2-2-2-2-2-2-2-2-2
a|7-7-7-7-7-7-7-7-2-2-2-2-2-2-2-2-2
d|7-7-7-7-7-7-7-7-2-2-2-2-2-2-2-2-2

e|-------------------------------
b|-------------------------------
g|-------------------------------
d|4-4-4-4-4-4-4-4-0-0-0-0-0-0-0-0 X2
a|4-4-4-4-4-4-4-4-0-0-0-0-0-0-0-0
d|4-4-4-4-4-4-4-4-0-0-0-0-0-0-0-0

Verse 2
e|---------------
b|---------------
g|---------------
d|0-0-0-0-0-0-0-0
a|0-0-0-0-0-0-0-0
d|0-0-0-0-0-0-0-0

Bridge

e|-----------------5----------5------------5---------------
b|-------------------6----v5----6-----v5-----6-----v5------
g|---------------------7----------7------------7-----------
d|-7-2-4-7-2-4--------------------------------------------7
a|-7-2-4-7-2-4--------------------------------------------7
d|-7-2-4-7-2-4--------------------------------------------7


Outro

e|------------------------------------------------------------------------
b|------------------------------------------------------------------------
g|------------------------------------------------------------------------
d|000000002222222244444444666666668888888810101010101010101212121212121212
a|000000002222222244444444666666668888888810101010101010101212121212121212
d|000000002222222244444444666666668888888810101010101010101212121212121212

Order:
Intro
Verse 1
Pre-chorus
Chorus
Bass solo
Verse 2
Bass solo
Verse 2
Pre-chorus
Chorus
Bridge
Chorus
Outro


Oceń to opracowanie
Kontrybucje:
nem
nem
anonim