0
0

We Belive Good Charlotte

Tekst piosenki i chwyty na gitarę

  • Chwyty na gitarę
    6 ulubionych



--------------------------------------------------------------------------
   EM-0- -D2- -C0-   Cadd9 -3-    -G3-
-0- -3- -1- -3- -3-
-0- -2- -0- -0- -0-
-2- -0- -2- -2- -0-
-2- -x- -3- -3- -2-
-0- -x- -0- -x- -3-
--------------------------------------------------------------------------
Intro x2

eb|---3-3-3-3-3-3-3----3-3-3-3-3-3-3---3-3-3-3-3-3-3---3-3-3-3-3-3-3-------|
Bb|---3-3-3-3-3-3-3----3-3-3-3-3-3-3---3-3-3-3-3-3-3---3-3-3-3-3-3-3-------|
Gb|---0-0-0-0-0-0-0----0-0-0-0-0-0-0---0-0-0-0-0-0-0---0-0-0-0-0-0-0-------|
Db|--2---------------0-----------------------------------------------------|
Ab|-----------------------------------3---------------3--------------------|
Eb|------------------------------------------------------------------------|


Verse

theEMre's a woman crying oDut tonight
hCer world has changed she asked
God why hEMer only son has died anDd her doughter cries
she can't slCeep at night

downEMtown another day for all the sDuits and ties
another wCar to fight there's no regard for life
how can they slEMeep at night
how can wDe make things right
just want Cto make this right
--------------------

Chorus

we Cadd9belive, we belive,
we Gbelive, we belive
we beDlive, we belive in this lovCadd9e         EM  

--------------------

Verse
we aDre all the sCame
human iEMn all our waDys and all our pClain
so let it EMbe, there's a love that Dcould fall down like rain
let us sCee, let forgiveness wash away the pain
what we nEMeed, and no one really knows what they are sDearching for
we beliveC, this world is crying for so much more

------------------
Chorus x2
------------------

EM G C
EM G C

------------------
so this wEMorld, is too mGuch for you to tCake
just lay it doCwn and follow mEM
i'll be evGerything you neCed
in every wDay
--------------------
Chorus
--------------------
Outro

Cadd9(In this love)
We belive
(GIn this love)
We belive
(DIn this love)
We belive
(CIn this love)


Oceń to opracowanie
Kontrybucje:
arturek
arturek
anonim