Click Good Charlotte



Gitara 1




E||----------------------|----------------------|----------------------|
B||----------------------|----------------------|----------------------|
G||----------------------|----------------------|----------------------|
D||----------4-----------|----------4-----------|----------4-----------|
A||--5----7---------7----|--5----7---------7----|--5----7---------7----|
E||----------------------|----------------------|----------------------|



----------------------|----------------------|----------------------|
----------------------|----------------------|----------------------|
----------------------|----------------------|----------------------|
--4----5--4-----------|----------4-----------|----------4-----------|
-----------------7----|--5----7---------7----|--5----7---------7----|
----------------------|----------------------|----------------------|



-------------------|------------------|----------------------|
-------------------|------------------|----------------------|
-------------------|------------------|----------------------|
-------------------|------------------|----------4-----------|
--5~---------------|------------------|--5----7---------7----|
-------------------|------------------|----------------------|



----------------------|----------------------|----------------------|
----------------------|----------------------|----------------------|
----------------------|----------------------|----------------------|
----------4-----------|----------4-----------|--4----5--4-----------|
--5----7---------7----|--5----7---------7----|-----------------7----|
----------------------|----------------------|----------------------|



----------------------|----------------------|-------------------|
----------------------|----------------------|-------------------|
----------------------|----------------------|-------------------|
----------4-----------|----------4-----------|-------------------|
--5----7---------7----|--5----7---------7----|--5~---------------|
----------------------|----------------------|-------------------|



------------------||--------------------|-------------------|
------------------||--------------------|-------------------|
------------------||*--7----------------|-------------------|
------------------||*--7----------------|--7----------------|
------------------||---5----------------|--7----------------|
------------------||--------------------|--5----------------|



-------------------|-------------------||-----------------------|
-------------------|-------------------||-----------------------|
-------------------|------------------*||*----------------------|
--5----------------|------------------*||*----------4-----------|
--5----------------|-------------------||---5----7---------7----|
--3----------------|-------------------||-----------------------|



----------------------|----------------------|-----------------------||
----------------------|----------------------|-----------------------||
----------------------|----------------------|----------------------*||
----------4-----------|----------4-----------|--4----5--4-----------*||
--5----7---------7----|--5----7---------7----|-----------------7-----||
----------------------|----------------------|-----------------------||



---------------------------|--------------------------|
---------------------------|--------------------------|
*--------------------------|--------------------------|
*--7--7--7--7--7--7--7--7--|--------------------------|
---5--5--5--5--5--5--5--5--|--7--7--7--7--7--7--7--7--|
---------------------------|--5--5--5--5--5--5--5--5--|



--------------------------|--------------------------|
--------------------------|--------------------------|
--------------------------|--------------------------|
--------------------------|--------------------------|
--9--9--9--9--9--9--9--9--|--5--5--5--5--5--5--5--5--|
--7--7--7--7--7--7--7--7--|--3--3--3--3--3--3--3--3--|



--------------------------|--------------------------|------------------------|
--------------------------|--------------------------|------------------------|
--------------------------|--------------------------|------------------------|
--7--7--7--7--7--7--7--7--|--------------------------|------------------------|
--5--5--5--5--5--5--5--5--|--7--7--7--7--7--7--7--7--|--------5----------5----|
--------------------------|--5--5--5--5--5--5--5--5--|--3--3--3----3--3--3----|



-------------------------||----------------------|----------------------|
-------------------------||----------------------|----------------------|
------------------------*||----------------------|----------------------|
------------------------*||----------4-----------|----------4-----------|
--------5----------5-----||--5----7---------7----|--5----7---------7----|
--3--3--3----3--3--3-----||----------------------|----------------------|



----------------------|----------------------|----------------------|
----------------------|----------------------|----------------------|
----------------------|----------------------|----------------------|
----------4-----------|--4----5--4-----------|----------4-----------|
--5----7---------7----|-----------------7----|--5----7---------7----|
----------------------|----------------------|----------------------|



----------------------|-------------------|------------------|
----------------------|-------------------|------------------|
----------------------|-------------------|------------------|
----------4-----------|-------------------|------------------|
--5----7---------7----|--5~---------------|------------------|
----------------------|-------------------|------------------|



|--------------------|-------------------|-------------------|
|--------------------|-------------------|-------------------|
|*--7----------------|-------------------|-------------------|
|*--7----------------|--7----------------|--9----------------|
|---5----------------|--7----------------|--9----------------|
|--------------------|--5----------------|--7----------------|



--------------------||-----------------------|----------------------|
--------------------||-----------------------|----------------------|
-------------------*||*----------------------|----------------------|
--5----------------*||*----------4-----------|----------4-----------|
--5-----------------||---5----7---------7----|--5----7---------7----|
--3-----------------||-----------------------|----------------------|



----------------------|-----------------------||---------------------------|
----------------------|-----------------------||---------------------------|
----------------------|----------------------*||*--------------------------|
----------4-----------|--4----5--4-----------*||*--7--7--7--7--7--7--7--7--|
--5----7---------7----|-----------------7-----||---5--5--5--5--5--5--5--5--|
----------------------|-----------------------||---------------------------|



--------------------------|--------------------------|
--------------------------|--------------------------|
--------------------------|--------------------------|
--------------------------|--------------------------|
--7--7--7--7--7--7--7--7--|--9--9--9--9--9--9--9--9--|
--5--5--5--5--5--5--5--5--|--7--7--7--7--7--7--7--7--|



--------------------------|--------------------------|
--------------------------|--------------------------|
--------------------------|--------------------------|
--------------------------|--7--7--7--7--7--7--7--7--|
--5--5--5--5--5--5--5--5--|--5--5--5--5--5--5--5--5--|
--3--3--3--3--3--3--3--3--|--------------------------|



--------------------------|------------------------|-------------------------||
--------------------------|------------------------|-------------------------||
--------------------------|------------------------|------------------------*||
--------------------------|------------------------|------------------------*||
--7--7--7--7--7--7--7--7--|--------5----------5----|--------5----------5-----||
--5--5--5--5--5--5--5--5--|--3--3--3----3--3--3----|--3--3--3----3--3--3-----||



-------------------|-------------------|-------------------|------------------|
-------------------|-------------------|-------------------|------------------|
--7----------------|-------------------|-------------------|------------------|
--7----------------|--7----------------|--5----------------|------------------|
--5----------------|--7----------------|--5----------------|------------------|
-------------------|--5----------------|--3----------------|------------------|



-------------------|-------------------|--------------------------|
-------------------|-------------------|--------------------------|
--7----------------|-------------------|--------------------------|
--7----------------|--7----------------|--5--5--5--5--5--5--5--5--|
--5----------------|--7----------------|--5--5--5--5--5--5--5--5--|
-------------------|--5----------------|--3--3--3--3--3--3--3--3--|



--------------------------||-----------------------|----------------------|
--------------------------||-----------------------|----------------------|
--------------------------||*----------------------|----------------------|
--------5-----------5-----||*----------4-----------|----------4-----------|
--------5-----------5-----||---5----7---------7----|--5----7---------7----|
--3--3--3--3--3--3--3--3--||-----------------------|----------------------|



-------------------|-------------------||------------------------|
-------------------|-------------------||------------------------|
-------------------|------------------*||*--7----7----x----x--x--|
-------------------|------------------*||*--7----7----x----x--x--|
--5~---------------|-------------------||---5----5----x----x--x--|
-------------------|-------------------||------------------------|



-----------------------|-----------------------|-----------------------|
-----------------------|-----------------------|-----------------------|
-----------------------|-----------------------|-----------------------|
--7----7----x----x--x--|--9----9----x----x--x--|--5----5----x----x--x--|
--7----7----x----x--x--|--9----9----x----x--x--|--5----5----x----x--x--|
--5----5----x----x--x--|--7----7----x----x--x--|--3----3----x----x--x--|



-----------------------|-----------------------|--------------------------|
-----------------------|-----------------------|--------------------------|
--7----7----x----x--x--|-----------------------|--------------------------|
--7----7----x----x--x--|--7----7----x----x--x--|--------5-----------5-----|
--5----5----x----x--x--|--7----7----x----x--x--|--------5-----------5-----|
-----------------------|--5----5----x----x--x--|--3--3--3--3--3--3--3--3--|



---------------------------||-----------------------|----------------------|
---------------------------||-----------------------|----------------------|
--------------------------*||*----------------------|----------------------|
--------5-----------5-----*||*----------4-----------|----------4-----------|
--------5-----------5------||---5----7---------7----|--5----7---------7----|
--3--3--3--3--3--3--3--3---||-----------------------|----------------------|


3x

----------------------|-----------------------||----------------------|
----------------------|-----------------------||----------------------|
----------------------|----------------------*||----------------------|
----------4-----------|--4----5--4-----------*||----------4-----------|
--5----7---------7----|-----------------7-----||--5----7---------7----|
----------------------|-----------------------||----------------------|



----------------------|-------------------|------------------||
----------------------|-------------------|------------------||
----------------------|-------------------|------------------||
----------4-----------|-------------------|------------------||
--5----7---------7----|--5~---------------|------------------||
----------------------|-------------------|------------------||

Gitara 2




E||-------------------|-------------------|-------------------|
B||-------------------|-------------------|-------------------|
G||--7----------------|-------------------|-------------------|
D||--7----------------|--7----------------|--5----------------|
A||--5----------------|--7----------------|--5----------------|
E||-------------------|--5----------------|--3----------------|



------------------|-------------------|-------------------|-------------------|
------------------|-------------------|-------------------|-------------------|
------------------|--7----------------|-------------------|-------------------|
------------------|--7----------------|--7----------------|--5----------------|
------------------|--5----------------|--7----------------|--5----------------|
------------------|-------------------|--5----------------|--3----------------|



-----------------------|--------------------------|--------------------------|
-----------------------|--------------------------|--------------------------|
-----------------------|--7--7--7--7--7--7--7--7--|--------------------------|
-----------------------|--7--7--7--7--7--7--7--7--|--7--7--7--7--7--7--7--7--|
--5--5--5--5--5--------|--5--5--5--5--5--5--5--5--|--7--7--7--7--7--7--7--7--|
--3--3--3--3--3--------|--------------------------|--5--5--5--5--5--5--5--5--|



--------------------------|--------------------------|
--------------------------|--------------------------|
--------------------------|--------------------------|
--5--5--5--5--5--5--5--5--|--5--5--5--5--5--5--5--5--|
--5--5--5--5--5--5--5--5--|--5--5--5--5--5--5--5--5--|
--3--3--3--3--3--3--3--3--|--3--3--3--3--3--3--3--3--|



--------------------------|--------------------------|
--------------------------|--------------------------|
--7--7--7--7--7--7--7--7--|--------------------------|
--7--7--7--7--7--7--7--7--|--7--7--7--7--7--7--7--7--|
--5--5--5--5--5--5--5--5--|--7--7--7--7--7--7--7--7--|
--------------------------|--5--5--5--5--5--5--5--5--|



--------------------------|--------------------------|
--------------------------|--------------------------|
--------------------------|--------------------------|
--5--5--5--5--5--5--5--5--|--5--5--5--5--5--5--5--5--|
--5--5--5--5--5--5--5--5--|--5--5--5--5--5--5--5--5--|
--3--3--3--3--3--3--3--3--|--3--3--3--3--3--3--3--3--|



|---------------------------|--------------------------|
|---------------------------|--------------------------|
|*--------------------------|--------------------------|
|*--7-----------------------|--------------------------|
|---5--5--5--5--5--5--5--5--|--7-----------------------|
|---------------------------|--5--5--5--5--5--5--5--5--|



--------------------------|---------------------------||
--------------------------|---------------------------||
--------------------------|--------------------------*||
--------------------------|--------------------------*||
--5-----------------------|--5------------------------||
--3--3--3--3--3--3--3--3--|--3--3--3--3--3--3--3--3---||



---------------------------|--------------------------|
---------------------------|--------------------------|
*--------------------------|--------------------------|
*--7-----------------------|--------------------------|
---5--5--5--5--5--5--5--5--|--7-----------------------|
---------------------------|--5--5--5--5--5--5--5--5--|



--------------------------|---------------------------||
--------------------------|---------------------------||
--------------------------|--------------------------*||
--------------------------|--------------------------*||
--5-----------------------|--5------------------------||
--3--3--3--3--3--3--3--3--|--3--3--3--3--3--3--3--3---||



---------------------------|--------------------------|
---------------------------|--------------------------|
*--7--7--7--7--7--7--7--7--|--------------------------|
*--7--7--7--7--7--7--7--7--|--7--7--7--7--7--7--7--7--|
---5--5--5--5--5--5--5--5--|--7--7--7--7--7--7--7--7--|
---------------------------|--5--5--5--5--5--5--5--5--|



--------------------------|--------------------------|
--------------------------|--------------------------|
--------------------------|--------------------------|
--9--9--9--9--9--9--9--9--|--5--5--5--5--5--5--5--5--|
--9--9--9--9--9--9--9--9--|--5--5--5--5--5--5--5--5--|
--7--7--7--7--7--7--7--7--|--3--3--3--3--3--3--3--3--|



--------------------------|--------------------------|------------------------|
--------------------------|--------------------------|------------------------|
--7--7--7--7--7--7--7--7--|--------------------------|------------------------|
--7--7--7--7--7--7--7--7--|--7--7--7--7--7--7--7--7--|--------5----------5----|
--5--5--5--5--5--5--5--5--|--7--7--7--7--7--7--7--7--|--------5----------5


Oceń to opracowanie
Kontrybucje:
nem
nem
anonim