0
0

21 Guns Green Day

Intro:
e|d -1-|B ---|-F5-|-C0-|
B|---|-3-|---|---|
G|---|---|---|---|
D|---|---|---|--- x2
A|---|---|---|---|
E|---|---|---|---|


1:
d Do you B know what's woFrth fightCing for

Dm, Bb, F, C x6

B You&#C39;re in ruins


Ref:
FOne, C21d guns
CLay down your B arms
FGive up the Cfight
FOne, C21d guns
CThrow up your
B arms Finto the sCky
You and B I  F  C 


Gitara 2: po "give up the fight" i "into the sky"
e|-0-1-3-|
B|-------|
G|-------|
D|-------|
A|-------|
E|-------|



d Did you B try to Flive on your Cown
d When you B burned down the Fhouse and Ahome?
d Did you sB tand too Fclose to the Afire?
Like a lB iar looking for forCgiveness from a stone

Solo:
F-C-d -C-B -F-C-- x2 B -F-A--

Gitara 2:
e|-----F-------|----C/E------|---d ------|----C-----|---B -----|---F-----|-----C-------|
B|------10----|-8--10----|---------|---------|--------|--------|----------8-|
G|---------10-|-------10-|--7-10-7-|-9--10-7-|----7---|--------|-9---9-10---|
D|---10-------|----------|---------|---------|--8---8-|-10-7---|------------|
A|-8----------|----------|---------|---------|--------|------8-|------------|
E|------------|----------|---------|---------|--------|--------|------------|

e|-----F-------|----C/E------|---d ------|----C-----|---B -----|---F-----|-----C-----8-|
B|------10----|-8--10----|---------|---------|--------|--------|------------|
G|---------10-|-------10-|--7-10-7-|-9--10-7-|----7---|--------|-9---9-10---|
D|---10-------|----------|---------|---------|--8---8-|-10-7---|------------|
A|-8----------|----------|---------|---------|--------|------8-|------------|
E|------------|----------|---------|---------|--------|--------|------------|

e|---B ------|----F-----|-----A-------|
B|---------|---------|------------|
G|---7-----|---------|-9--9--9--9-|
D|-----8---|-10-7----|------------|
A|-------8-|------8--|------------|
E|-6-------|---------|------------|



e|d -1-|B ---|-F5-|-C0-|
B|---|-3-|---|---|
G|---|---|---|---|
D|---|---|---|--- x2
A|---|---|---|---|
E|---|---|---|---|


3:
d When itB 9;s timeF to live and Clet die
Dm, Bb, F, C x2

Bb (hold)


Oceń to opracowanie
Ocena czytelników: Dobry 6 głosów
Kontrybucje:
Guitar33
Guitar33
anonim