0
0

21 Guns Green Day

Intro:
  d   B    F   C
e|-1-|---|-5-|-0-|
B|---|-3-|---|---|
G|---|---|---|---|
D|---|---|---|--- x2
A|---|---|---|---|
E|---|---|---|---|


1:
d        B                 F        C
  Do you know what's worth fighting for

Dm, Bb, F, C  x6

B    C
You're in ruins


Ref:
F    C d 
One, 21  guns
C             B 
Lay down your arms
F           C
Give up the fight
F    C d 
One, 21  guns
C
Throw up your
B    F         C
arms into the sky
        B  F C
You and I


Gitara 2: po "give up the fight" i "into the sky"
e|-0-1-3-|
B|-------|
G|-------|
D|-------|
A|-------|
E|-------|



d         B      F            C
  Did you try to live on your own
d          B               F         A
  When you burned down the house and home?
d          B        F            A
  Did you stand too close to the fire?
        B                  C
Like a liar looking for forgiveness from a stone

Solo:
F-C-d -C-B -F-C-- x2 B -F-A--

Gitara 2:
       F           C/E       d          C        B        F          C
e|------------|----------|---------|---------|--------|--------|------------|
B|------10----|-8--10----|---------|---------|--------|--------|----------8-|
G|---------10-|-------10-|--7-10-7-|-9--10-7-|----7---|--------|-9---9-10---|
D|---10-------|----------|---------|---------|--8---8-|-10-7---|------------|
A|-8----------|----------|---------|---------|--------|------8-|------------|
E|------------|----------|---------|---------|--------|--------|------------|

       F           C/E       d          C        B        F          C
e|------------|----------|---------|---------|--------|--------|----------8-|
B|------10----|-8--10----|---------|---------|--------|--------|------------|
G|---------10-|-------10-|--7-10-7-|-9--10-7-|----7---|--------|-9---9-10---|
D|---10-------|----------|---------|---------|--8---8-|-10-7---|------------|
A|-8----------|----------|---------|---------|--------|------8-|------------|
E|------------|----------|---------|---------|--------|--------|------------|

     B          F          A
e|---------|---------|------------|
B|---------|---------|------------|
G|---7-----|---------|-9--9--9--9-|
D|-----8---|-10-7----|------------|
A|-------8-|------8--|------------|
E|-6-------|---------|------------|



  d   B    F   C
e|-1-|---|-5-|-0-|
B|---|-3-|---|---|
G|---|---|---|---|
D|---|---|---|--- x2
A|---|---|---|---|
E|---|---|---|---|


3:
d           B       F            C
  When it's time to live and let die
Dm, Bb, F, C x2

Bb (hold)

Oceń to opracowanie
Ocena czytelników: Dobry 5 głosów
Kontrybucje:
Guitar33
Guitar33
Teledysk

Dodaj własne wykonanie

Umiesz zagrać tą piosenkę? Nagraj swoje wykonanie i pokaż innym jak grasz!
anonim