Basket Case Green Day


Intro/Verse
"do you have the time........"
e-------------------------I
B-------------------------I
G---8---------------8-----I Play X2
D---8--8--10--5--6--8--8--I
A---6--8--10--5--6--6--8--I
E------6--8---3--4-----6--I

Chorus
"sometimes my mind plays tricks on me......"
e----------------------I------------------------I------------------I
B----------------------I------------------------I------------PLAY--I
G---------8----PLAY X3-I--------8--10--5--------I--8----------X2---I
D---6--8--8------------I--6--8--8--10--5--6--8--I--8--8--10--------I
A---6--8--6------------I--6--8--6--8---3--6--8--I--6--8--10--------I
E---4--6---------------I--4--6------------4--6--I-----6--8---------I


REPEAT ALL X1

e----------------------I
B----------------------I play this X4 on the 2nd chorus
G-----8----------------I instead of X2
D-----8--8--10--8------I
A-----6--8--10--8------I
E--------6--8---6------I


"grasping to control.........."
e--------I
B--------I
G--------I
D--6--8--I
A--6--8--I
E--4--6--I

PLAY VERSE
PLAY CHORUS
Outro
e---------------------I
B---------------------I
G---8---------8-------I Play X
D---8--10--6--8--8----I
A---6--10--6--6--8----I
E------8---4-----6----I

Finish on
Outro
e------------------I
B------------------I
G----------8-------I Play X7(i think)
D-------6--8--8----I
A-------6--6--8----I
E-------4-----6----I


Oceń to opracowanie
Ocena czytelników: Słaby 1 głos
Kontrybucje:
nem
nem
anonim
  • anonim
    Anonimowy Użytkownik
    Green Day :* !!!
    · Zgłoś · 12 lat temu
  • kizior
    zal mrpejcio najpierw naucz sie ukladac zdania potem komentuj
    · Zgłoś · 12 lat temu
  • mrpejcio
    o lol co to ma być ja nie mogę po prostu brawo ja nie wiem jak można tak spieprzyć tabulature omg.
    · Zgłoś · 14 lat temu