0
0

Boulevard of Broken Dreams Green Day


zwrotka:
F Gis
Dis B
F Gis
Dis B

Riff 1

zwrotka


Riff 1 x2

I walk alone F Gis Dis B
I walk alone

Riff 1:

e|-----------------------|
B|--8-9---9/13-11---8-9--|
G|-----------------------|
D|-----------------------|
A|-----------------------|
E|-----------------------|

Riff 2:
x3
e|------------------------------|
B|-------8-9---9/13-11---8-9--9-|
G|-10-10------------------------|
D|------------------------------|
A|------------------------------|
E|------------------------------|

e|---------------------------------------|
B|--------8-9--9/13-11-13-13-13-13-13-13-|
G|-10-10---------------------------------|
D|---------------------------------------|
A|---------------------------------------|
E|---------------------------------------|

e|---------------------------------------|
B|-13-13-13-13-13-13-13------------------|
G|---------------------------------------|
D|---------------------------------------|
A|---------------------------------------|
E|---------------------------------------|

Zwrotka:

F Gis Dis B
e|--1----4----6----6---|
B|--1----4----8----6---|
G|--2----5----8----7---|
D|--3----6----8----8---|
A|--3----6----6----8---|
E|--1----4---------6---|

Refren:

Cis5 Gis5 Dis5 F5 x3 Cis5 Gis5 C5
e|---------------------------------------|
B|---------------------------------------|
G|--6---------8------------6---------5---|
D|--6----6----8----3-------6----6----5---|
A|--4----6----6----3-------4----6----3---|
E|-------4---------1------------4--------|

zakończenie:
x3
e|--------------------------------------|
B|--------------------------------------|
G|--------------------------------------|
D|--------------------------------------|
A|-------4-4-4-6-6-6-5-5-5--------------|
E|-1-1-1-------------------4-4-4-0-0-0--|

e|--------------------------------------|
B|--------------------------------------|
G|--------------------------------------|
D|--------------------------6-6-2-2-----|
A|-------4-4-4-6-6-6-5-5-5--6-6-2-2-----|
E|-1-1-1--------------------4-4-0-0-----|


Oceń to opracowanie
Ocena czytelników: Fatalny+ 2 głosy
Kontrybucje:
nem
nem
anonim
  • Kacper
    Deat
    Hhhhhh;(ghhjfjfjvjvjjvjvjfjfjf
    · Zgłoś · 4 lata temu
Usunięto 1 komentarz