Wakacyjny Konkurs Śpiewnikowy
Wakacyjny Konkurs Śpiewnikowy
Popraw Opracowanie Usuń
Transponuj
0

Good Riddance (Time Of Your Live) Green Day

Tekst piosenki i chwyty na gitarę

  • Chwyty na gitarę
    13 ulubionych
G                       C                 D
Another turning point a fork stuck in the road
G                           C                    D
Time grabs you by the wrist directs you where to go
e               D            C                 G
So make the best of this task and dont ask why
e              D            C                G
Its not a question but a lesson learnt in time

Chorus
e                    G            e                   G
its something unpredictable but in the end its right
e                       D           G
i hope you have the time of you life

G.....C......D x2

Verse 2

so take the photographs and still frames in your mind
hang them on a shelf of good health and good time
tatoos and memories and deadskin on trial
through what its worth it was worth all the while

its something umpredictable but in the end its right
i hope you have the time of your life

G........C.......D x2
e....D.......C.......G x2

its something umpredictable but in the end its right
i hope you have the time of your life

G.....C.....D x2

Chorus
e                      G            e                 G
its something unpredictable but in the end its right
e                       D           G
i hope you have the time of you life

G,C,D,Em
Oceń to opracowanie
Ocena czytelników: Doskonały 7 głosów

Kontrybucje

Wakacyjny Konkurs Śpiewnikowy

Pula nagród w konkursie ponad 10.000 zł!
Przysyłaj opracowania piosenek i zdobądź bony na zakupy w sklepie muzycznym.
Zapoznaj się z regulaminem konkursu.
anonim
Wszystkie komentarze
Znaleziono 21 komentarzy.
  • Emila
    Emila 8 lat temu

    Posłuchaj sobie piosenki i wsłuchaj się w rytm. Mnie się udało ;)
    A co do akordów, to są zgodne z tym Armstrong gra w piosence. Wystarczy popatrzeć.

  • Czapka
    Czapka 8 lat temu

    a mozesz mi powiedziec jaka bitka jest do tego .?

  • Arek
    Arek 11 lat temu

    no dzięki... sprubuje :)

  • The Madeleine
    The Madeleine 11 lat temu

    Mi pasuje bardziej e7...albo e-sus4 :)

  • Arek
    Arek 11 lat temu

    ale te e-moll mi tu coś nie pasuje

  • Arek
    Arek 11 lat temu

    Dzięki...

  • The Madeleine
    The Madeleine 11 lat temu

    Arek...
    'e' gramy:
    |---------|-----------|---------|
    |---------|-----------|---------|
    |---------|-----------|---------|
    |---------|-----*----|----------|trzeci palec(środkowy)
    |---------|-----*----|----------|palec wskazujący
    |---------|-----------|---------|

    'G' odpowiednie do Good Riddance gramy tak:
    --------|--------|---4---|--------
    --------|--------|---3---|--------
    --------|--------|--------|--------
    --------|--------|--------|--------
    --------|---1---|--------|--------
    --------|--------|---2---|--------

    a 'C' do Good Riddance tak:

    --------|--------|---4---|--------
    --------|--------|---3---|--------
    --------|--------|--------|--------
    --------|---1---|--------|--------
    --------|--------|----2--|--------
    --------|--------|--------|--------

  • Arek
    Arek 11 lat temu

    dzięki z góry

  • Arek
    Arek 11 lat temu

    to to jest "e" jak sie dołoży na drugiej strunie trzeciego progu?? troche się zamotałem xD

  • The Madeleine
    The Madeleine 11 lat temu

    Przy graniu "G" trzeba dołożyć na 2giej strunie 'd' (trzeci próg).

    A 'C' gramy:
    --------|--------|---4---|--------
    --------|--------|---3---|--------
    --------|--------|--------|--------
    --------|--------|--------|--------
    --------|---1---|--------|--------
    --------|--------|---2---|--------
    1. 2. 3. 4.

Wszystkie komentarze