0
0

Wake me up when September ends Green Day

Intro:
e|---------------------------------------------------------|
B|------3-----3-------3-----3-------3-----3-------3-----3--|
G|----0-----0-------0-----0-------0-----0-------0-----0----|
D|--5-----5-------5-----5-------5-----5-------5-----5------|
A|---------------------------------------------------------|
E|---------------------------------------------------------|


Riff 1:
e|---------------------------------------------------------|
B|------3-----3-------3-----3-------3-----3-------3-----3--|
G|----0-----0-------0-----0-------0-----0-------0-----0----|
D|--5-----5-------4-----4-------2-----2-------0-----0------|
A|---------------------------------------------------------|
E|---------------------------------------------------------|

e|------3-----3-------3-----3----|
B|------5-----5-------4-----4----|
G|----5-----5---5---5-----5---5--|
D|--5-----5-------5-----5--------|
A|-------------------------------|
E|-------------------------------|

Ending 1:
e|------------------------------|
B|------3-----3-------3-----3---|
G|----0-----0---0---0-----0---0-|
D|--5-----5-------5-----5-------|
A|------------------------------|
E|------------------------------|

Ending 2:
e|-----------------------------------|
B|------3-----3-------3-------3------|
G|----0-----0---0---0---0---0--0-----|
D|--5-----5-------5-------4----------|
A|-----------------------------------|
E|-----------------------------------|


Riff 2:
e|------------------------------------------------------------|
B|------3-----3-------3-----3-------3-----3-------3-------3---|
G|----0-----0---0---0-----0---0---0-----0---0---0---0---0--0--|
D|--2-----2-----------------------------------5-------4-------|
A|----------------2-----2-------3-----3-----------------------|
E|------------------------------------------------------------|

e|------------------------------------------------------------|
B|------3-----3-------3-----3-------3-----3-------3-----3-----|
G|----0-----0---0---0-----0---0---0-----0-------0-----0---0---|
D|--2-----2-----------------------------------0-----0---------|
A|----------------2-----2-------3-----3-----------------------|
E|------------------------------------------------------------|


Riff 3:
e|---------------------------------------------------------|
B|------3-----3-------3-----3-------3-----3-------3-----3--|
G|----0-----0-------0-----0-------0-----0-------0-----0----|
D|--5-----5-------4-----4-------2-----2-------0-----0------|
A|---------------------------------------------------------|
E|---------------------------------------------------------|

e|--C--------------c ---------------|
B|--5-5-5-5-5-5-5-4-4-4-4-4-4-4--|
G|--5-5-5-5-5-5-5-5-5-5-5-5-5-5--|
D|--5-5-5-5-5-5-5-5-5-5-5-5-5-5--|
A|--3-3-3-3-3-3-3-3-3-3-3-3-3-3--|
E|-------------------------------|

Ending 3:
e|--G5----------------------------|
B|------------------------------|
G|------------------------------|
D|--5-5-5-5-5-5-5-5-5-5-5-5-5-5-|
A|--5-5-5-5-5-5-5-5-5-5-5-5-5-5-|
E|--3-3-3-3-3-3-3-3-3-3-3-3-3-3-|

Ending 4:
e|--G5--------------------G5/F#--------|
B|------------------------------|
G|------------------------------|
D|--5-5-5-5-5-5-5-5-5-5-5-5-5-5-|
A|--5-5-5-5-5-5-5-5-5-5-5-5-5-5-|
E|--3-3-3-3-3-3-3-3-3-3-2-2-2-2-|


Riff 4:
e|--e ---------------b ---------------C5---------------G5--------G5/F#---------|
B|-----------------3-3-3-3-3-3-3----------------------------------|
G|--0-0-0-0-0-0-0--4-4-4-4-4-4-4--5-5-5-5-5-5-5-------------------|
D|--2-2-2-2-2-2-2--4-4-4-4-4-4-4--5-5-5-5-5-5-5--5-5-5-5-5-5-5-5--|
A|--2-2-2-2-2-2-2--2-2-2-2-2-2-2--3-3-3-3-3-3-3--5-5-5-5-5-5-5-5--|
E|--0-0-0-0-0-0-0--------------------------------3-3-3-3-2-2-2-2--|

e|--e ---------------b ---------------C5---------------D5-----------------|
B|-----------------3-3-3-3-3-3-3----------------------------------|
G|--0-0-0-0-0-0-0--4-4-4-4-4-4-4--5-5-5-5-5-5-5--7-7-7-7-7-7-7-7--|
D|--2-2-2-2-2-2-2--4-4-4-4-4-4-4--5-5-5-5-5-5-5--7-7-7-7-7-7-7-7--|
A|--2-2-2-2-2-2-2--2-2-2-2-2-2-2--3-3-3-3-3-3-3--5-5-5-5-5-5-5-5--|
E|--0-0-0-0-0-0-0-------------------------------------------------|


Solo:
e|--e -------------------------b --------------------------|
B|-------12-------12----12---------12-------12----12---|
G|-12-12----12-12----12------11-11----11-11----11------|
D|-----------------------------------------------------|
A|-----------------------------------------------------|
E|-----------------------------------------------------|

e|-C5-------------------------G515-15-15-15-G5/F#14-14-14-14----|
B|-------13-------13----13--15-15-15-15-15-15-15-15----|
G|-12-12----12-12----12--------------------------------|
D|-----------------------------------------------------|
A|-----------------------------------------------------|
E|-----------------------------------------------------|

e|--e -------------------------b --------------------------|
B|-------12-------12----12---------12-------12----12---|
G|-12-12----12-12----12------11-11----11-11----11------|
D|-----------------------------------------------------|
A|-----------------------------------------------------|
E|-----------------------------------------------------|

e|-C5-------------------------D515-15-15-15-15-15-15-15-14-14-14-14-14-14-14-14-|
B|-------13-------13----13--15-15-15-15-15-15-15-15-15-15-15-15-15-15-15-15-|
G|-12-12----12-12----12-----------------------------------------------------|
D|--------------------------------------------------------------------------|
A|--------------------------------------------------------------------------|
E|--------------------------------------------------------------------------|

e|-D515-15-15-15-15-15-15-15-14-14-14-14-14-14-14-14--|
B|-15-15-15-15-15-15-15-15-15-15-15-15-15-15-15-15--|
G|--------------------------------------------------|
D|--------------------------------------------------|
A|--------------------------------------------------|
E|--------------------------------------------------|


Outro:
e|--C--------------c --------------G5----------------------------[x3]| 
B|--5-5-5-5-5-5-5-4-4-4-4-4-4-4-----------------------------|
G|--5-5-5-5-5-5-5-5-5-5-5-5-5-5-----------------------------|
D|--5-5-5-5-5-5-5-5-5-5-5-5-5-5-5-5-5-5-5-5-5-5-5-5-5-5-5-5-|
A|--3-3-3-3-3-3-3-3-3-3-3-3-3-3-5-5-5-5-5-5-5-5-5-5-5-5-5-5-|
E|------------------------------3-3-3-3-3-3-3-3-3-3-3-3-3-3-|



Kolejność:

Intro
Riff 1 w/Ending 1
Riff 1 w/Ending 2
Riff 2
Riff 1 w/Ending 1
Intro (Drums come in halfway through)
Ending 1 (distorted)
Riff 3 w/Ending 3
Riff 3 w/Ending 4
Riff 4
Riff 3 w/Ending 4
Bridge: Riff 4 (hold final D5 for two more bars) w/Solo
Intro
Riff 3 w/Ending 3
Riff 3 w/Ending 3











Summer.... G
The innocent... e D
Wake me up... C G

tak wszystkie zwrotki zakończone "Wake me up...."

here comes... e b
Falling.... C G
Drenched... e b
Becoming... C D


Oceń to opracowanie
Ocena czytelników: Doskonały 3 głosy
Kontrybucje:
nem
nem
anonim
  • Chantal
    Jejku... jestem pod wrażeniem... pierwszy raz gram coś z tabulatury, a wychodzi super:D
    · Zgłoś · 14 lat temu
  • Banan
    cool ;) no w końcu zrozumiałem tabulaturę :D
    · Zgłoś · 14 lat temu
  • klaudiaaa
    jak dla mnie bomba :xd
    · Zgłoś · 14 lat temu
Usunięto 1 komentarz