0
0

Don't Cry Guns N' Roses

Talk to me softly there's something in your eyes  a d G C
Don't hang your head in sorrow and please don't cry
I know how you feel inside I've I've been there before
Somthin' changin' inside you and don't you know

Don't you cry tonight                          F G a
I still love you baby                          a
Don't you cry tonight                          F G a
Don't you cry tonight                          F G C
There's a heaven above you baby                a
And don't you cry tonight                      F G a

Give me a whisper and give me a sigh
Give me a kiss before you tell me goodbye
Don't you take it so hard now
And please don't take it so bad
I'll still be thinking of you
And the times we had baby

Don't you cry tonight
Don't you cry tonight
Don't you cry tonight
There's a heaven above you baby
And don't you cry tonight

And don't you cry tonight
Don't you cry tonight
Don't you cry tonight
There's a heaven above you baby
And don't you cry tonight

And please remember that I never lied
And please remember
how I felt inside now honey
You gotta make it your own way
But you'll be alright now sugar
You'll feel better tomorrow
Come the morning light now baby

And don't you cry tonight
An don't you cry tonight
An don't you cry tonight
There's a heaven above you baby
And don't you cry
Don't you ever cry
Don't you cry tonight
Baby maybe someday
Don't you cry
Don't you ever cry
Don't you cry tonight

Intro:

----------0------------1----------------3-------------------------------
-----------1----------3-3----------------3------------------------------
--------2----2------2-----2-----------0----0------------0-------0-------
------2---------0-0-----------------0-----------------0-------0---------
----0-------------------------0---2-------------0---3-------2-----3-2-0-
-3------------------------------3---------------------------------------

End of intro (after riff is played twice (through Dm only))

-----------------------------
-----------------------------
---------0-------------------
-------0------------2--------
-----2--------------0--------
---3-------2--3--4-----------

riff at end of verse 1

---------------------------
--------0--0/1-------------
-----2----------2----------
--2------------2-----------
---------------------------
---------------------------

song ends on :

------0------------
------1------------
------0------------
------0/2----------
------3------------
------0------------



Oceń to opracowanie
Ocena czytelników: Dobry 41 głosów
anonim
  • Kacper
    Slash
    Beznadzieja
    · Zgłoś · 6 lat temu
  • Kacper
    CHUCKY
    Jest geniuszu -.-
    "And please remember that I never lied
    And please remember
    how I felt inside now honey
    You gotta make it your own way
    But you'll be alright now sugar
    You'll feel better tomorrow
    Come the morning light now baby "
    · Zgłoś · 8 lat temu
  • zmazia
    ja bym nie bił tylko kostkował to całe..
    · Zgłoś · 12 lat temu
  • Bella
    Arti 961 Jakby coś to Axl
    · Zgłoś · 12 lat temu
  • skimil
    arti jestes idiota!!!!
    i nie znasz sie na muzyce!!!!!
    · Zgłoś · 13 lat temu
  • stratogirl
    łopsze. jest tekst w pełni ;)
    · Zgłoś · 14 lat temu
  • anonim
    Bartek Kuchta
    ehh dobrze jest ;)
    · Zgłoś · 14 lat temu
  • Kacper
    Anul
    a tam sie czepiacie:P
    · Zgłoś · 15 lat temu
  • Kacper
    ziomuś
    wszystko jest przeciez i nie remomber tylko remember.......
    · Zgłoś · 15 lat temu
  • Kacper
    Angel
    e ty czytać nie umisz??;p wszystko jest;D
    · Zgłoś · 16 lat temu
Usunięto 2 komentarze
Wszystkie komentarze