0
0

Piąta trzydzieści Harlem

|G6-||b- ||a- ||e- ||Gm-|
|===||===||===||===||===|
|-7-||-7-||-5-||-0-||-3-|
|-8-||-7-||-5-||-0-||-3-|
|-9-||-7-||-5-||-0-||-3-|
|-9-||-9-||-7-||-2-||-5-|
|-7-||-9-||-7-||-2-||-5-|
|-7-||-7-||-5-||-0-||-3-|
|===||===||===||===||===|
============
|| WSTĘP: ||
============
1.
E||-------G6----7-----------b ---------------a -----------------e -0-------|
B||---------8---8------------7------------5------------------0-----|
G||-------9----------------7---7------------5------------------0---|
D||-----9----------------9--------------7-----7----------2---------|
A||---7----------------9--------------7---------7------2-----------|
E||------------------7--------------5----------------0-------------|

2.
E||-------G6----7-----------b ----------a ---[g /Am]-------5a -5---|
B||---------8---8------------7----------------5-5---|
G||-------9----------------7---7--------------5-5---|
D||-----9----------------9----------7-7-5/7---7-7---|
A||---7----------------9------------7-7-5/7---7-7---|
E||------------------7--------------5-5-3/5---5-5---|
================
|| Zwrotka 1: ||
================
Zdejmij te suknię, mała
noc taka krótka, popatrz zaraz świt

rozpuść włosy, jesli tego chcesz

w twoich oczach widzę rozkosz
chociaż twoje usta mówią nie

b zdeja mij [g /Am]suknię,g proe szę cię.

E||---------------------|
B||---------7---8p7-----|
G||-------9---------9~--|
D||-----9---------------|
A||---7-----------------|
E||---------------------|

================
|| Zwrotka 2: ||
================
Mówisz, że świat zwariował
że ludzie wszyscy wkoło z życia kpią

pewnie masz rację, kto to wie.

Twoje ciało pachnie grzechem, mówisz,
ale ja nie słucham, nie,

b zdeja mij [g /Am]suknię g proszę cię.

E||--------------------0--0-0-----------|
B||--------------------0--0-0-----------|
G||--------------------0--0-0-----------|
D||----------------2----------2-2p0-2---|
A||----------------2----------2-2p0-2---|
E||----------------0----------0-0---0---|

-==== Gitara II: ====-

E||----------------7---12~---|
B||----------------8---------|
G||----------------9---------|
D||----------------9---------|
A||--------------------------|
E||--------------------------|

================
|| Zwrotka 3: ||
================
G6Zdejb mij a tę se uknię, mala
noc taka krótka, popatrz zaraz świt

-==== Gitara I: ====-

G6pytab sz ca zy m[g /Am]ożesz już zaufać mi

-==== Gitara II: ====-

E||--------------------------------------------------|
B||----------10p8h10p8-10/12---8h12-12p10p8----4h5---|
G||--------------------------------------------------|
D||--------------------------------------------------|
A||--------------------------------------------------|
E||--------------------------------------------------|

G6nie b wiema bo e świat zwariował
a twoja gladka skóra w połmroku lśni

b zdeja mij [g /Am]suknię,g pome óż mi.

E||------------------------------0-0---------0-0---|
B||------------------------------0-0---------0-0---|
G||------------------------------0-0---------0-0---|
D||----------------------2-2p0-2-----2-2p0-2-------|
A||----------------------2-2p0-2-----2-2p0-2-------|
E||----------------------0-0---0-----0-0---0-------|

===========
|| Solo: ||

E||---12---10----10-10-------------------------------------------------|
B||-----------12-------12--10/12\10-10-10\8--10-8-10-8-10-10>><--8-----|
G||----------------------------------------------------------------9---|
D||--------------------------------------------------------------------|
A||--------------------------------------------------------------------|
E||--------------------------------------------------------------------|

E||------------------------10----10----10/12----12-10------------------|
B||-----8-10-10>><-8-10/12----12----12----------------12-10----10-12---|
G||---9-----------------------------------------------------12---------|
D||--------------------------------------------------------------------|
A||--------------------------------------------------------------------|
E||--------------------------------------------------------------------|



E||--------------------------------------------------------------------|
B||-----8-10-10>-10><-8----8-10-10>-10><-8---10-8-10-10>-8----12-------|
G||---9------------------9---------------------------------9-----------|
D||--------------------------------------------------------------------|
A||--------------------------------------------------------------------|
E||--------------------------------------------------------------------|

E||--------------------------------------------------------------------|
B||---12-10-8-8><>-----------------------------------------------------|
G||---------------------7/9\7/9----------------------------------------|
D||--------------------------------------------------------------------|
A||--------------------------------------------------------------------|
E||--------------------------------------------------------------------|

================
|| Zwrotka 4: ||
================
G6Zdejb mij a tę se uknię, mała
noc taka krótka, popatrz przyszedł świt

-==== Gitara I: ====-

G6zamkb nij a oczy[g /Am] jeśli g tegoe chcesz

-==== Gitara II: ====-

E||------------12-10--------|
B||------------------12-----|
G||---------------------9---|
D||-------------------------|
A||-------------------------|
E||-------------------------|

-==== Gitara I: ====-

G6coś b chyba a pre zeszło obok
i coś nagle skończyło się

b mówia sz, [g /Am]ja nie g suche am, nie

b mówia sz, [g /Am]ja nie g słuce ham, nie.

-==== Gitara II: ====-

E||---------------------------|
B||---------------------------|
G||-----------------------0---|
D||-------------------0h2-----|
A||---------------------------|
E||---------------------------|

-==== Gitara I: ====-

b mówia sz, ja nie słucham, nie.

===========
|| Solo: ||
===========
-==== Gitara II: ====-
E||------------------------------10----10----10-12-10-------------------|
B||---/12---8---8--10>><-8-10/12----12----12----------12-10>-12-10h12---|
G||-----------9---------------------------------------------------------|
D||---------------------------------------------------------------------|
A||---------------------------------------------------------------------|
E||---------------------------------------------------------------------|

E||-----------------------------|
B||---12p10h12~---10/8-10p8-----|
G||-------------------------9---|
D||-----------------------------|
A||-----------------------------|
E||-----------------------------|

==================
|| Zakończenie: ||
==================

-==== Gitara I: 1 ====-
E||---------------G6----7-----------b ---------e -----|
B||-----------------8---8------------7------0---|
G||---------------9----------------7---7----0---|
D||-------------9----------------9----------2---|
A||-----------7----------------9------------2---|
E||--------------------------7------------------|


Oceń to opracowanie
Ocena czytelników: Niczego sobie+ 6 głosów
Kontrybucje:
krzysiek.b5
krzysiek.b5
anonim