Gwiezdne wojny Inne

Tekst piosenki

  • Tekst piosenki Levandi

Guitar One

e|-----------------------------------------------|
B|-----------------------------------------------|
G|-----------------------------------------------|
D|-------------------7-7-7-8---------------------|
A|-5-5-5---8-5---8-5---------8-----8-5-----------|
E|-------6-----6---------------9-6---------------|

Guitar Two

e|-----------------------------------------------|
B|---------------------9-9-9-10------------------|
G|-7-7-7---10-7---10-7----------10------10-7-----|
D|-------8------8------------------11-8----------|
A|-----------------------------------------------|
E|-----------------------------------------------|


Oceń to opracowanie
Kontrybucje:
Levandi
Levandi
anonim