0
0

Ona jest ze snu Ira

Tekst piosenki i chwyty na gitarę

  • Chwyty na gitarę Jasiek =)
    204 ulubione
[intro:]
                 G             A
E|------------|-----------------------------------
H|------------|-----------------------------------
G|-------6-7--|-----------------------------6-7---
D|---7-9------|--5-5-5-5-5-4-5-7--7-7-7-7-9-------
A|------------|-----------------------------------
E|------------|----------------------------------- x 3

    G             A
E|-----------------------------------
H|-----------------------------------
G|-----------------------------------
D|--5-5-5-5-5-4-5-7--7-7-7-7-5-4-----
A|-------------------------------7---
E|-----------------------------------

      D      G    D        G    A               G
E|--------------------------------------------------------------
H|--7---7--x-3-3--7---7--x-3-3--5-5-5-5-5-5-5-5-3-3-3-3-3-3-3-3-
G|--7---7--x-4-4--7---7--x-4-4--6-6-6-6-6-6-6-6-4-4-4-4-4-4-4-4-
D|--7---7--x-5-5--7---7--x-5-5--7-7-7-7-7-7-7-7-5-5-5-5-5-5-5-5-
A|--5---5--x-5-5--5---5--x-5-5--7-7-7-7-7-7-7-7-5-5-5-5-5-5-5-5-
E|-------------------------------------------------------------- x2



     D                                A  G
Ref: Ona jest ze snu, a ubrana w codzienność  }
     Dla mnie zrzuca ją kiedy robi się ciemno }x2

A         h            G              A
By nasze życie miało wreszcie jakiś smak
Wracam chętnie do chwili i pamiętam pierwszy raz
A             h   A                  h
Pierwsze spotkanie jak podróż w nieznane
A                  h              G                            A
Siedzieliśmy wpatrzeni tak jak dzieci, które jeszcze nic nie wiedzą

Ref:
A             h                  G            A
By w środku nocy tańczyć razem w świetle gwiazd
Zamykam oczy, tańczy cisza wokół nas
A        h      A             h
Bo całkiem inna jest jej niewinność
A            h             G                          A
Każdy jej taniec jest wyłącznie dla mnie zawsze już zostanie

Ref...

Oceń to opracowanie
Ocena czytelników: Niczego sobie+ 36 głosów
Ira

Ira

Dodaj własne wykonanie

Umiesz zagrać tą piosenkę? Nagraj swoje wykonanie i pokaż innym jak grasz!
anonim
  • maridari_1966
    maridari_1966 8 miesięcy temu

    Fajny wykon

  • |Zbocus
    |Zbocus 10 lat temu

    Dobre, dzięki za tab do intro :D
    Próbuję jeszcze jak z biciem do refrenu, bo zwrotka to jako tako, ale refren mi nie brzmi