In A Gadda Da Vida Iron Butterfly

Tekst piosenki

  • Tekst piosenki Mati
Milego grania zycze!
coredian


Tu jest motyw ktory kazdy chyba rozpozna bez najmniejszych problemow:)
E-|---------------------------------------|
B-|---------------------------------------|
G-|-----------------------2--1--0---------|
D-|--0---0---3p2------0------------3------|
A-|---------------3-----------------------|
E-|---------------------------------------|
To wyzej nalezy grac i grac i grac.. tak bez konca:) Bo utwor ma ok.17 minut i przez polowe idzie wlasnie ten motyw.


Pozniej mamy cos w rodzaju solowki, takie latanie po strunach.
E-|-------------------------------------------------------|
B-|-------------------------------------------------------|
G-|-----------------1--2--1--2--3--2--1--2--1h2p1---------|
D-|--0--2--3--2--3--------------------------------3--2----|
A-|-------------------------------------------------------|
E-|-------------------------------------------------------|


E-|----------------------------------------------------|
B-|----------------------------------------------------|
G-|----------------------------------------------------|
D-|--5--5--5-4-3-2--2--2-3-4-5--5--5-4-3-2--2-3-4-5----|
A-|----------------------------------------------------|
E-|----------------------------------------------------|


E-|-------------------------------------------|
B-|-------------------------------------------|
G-|--6--6--6-5-4-3--3-3-4-5-6--6--6-5-4-3-----|
D-|-------------------------------------------|
A-|-------------------------------------------|
E-|-------------------------------------------|


E-|---------7--6h7p6---------------------|
B-|--7vvv-------------9--7---------------|
G-|--8vvv-------------------9b11vvvrb9---|
D-|--9vvv--------------------------------|
A-|--------------------------------------|
E-|--------------------------------------|


Oceń to opracowanie
Kontrybucje:
Mati
Mati
anonim