0
0

It's my live Jon Bon Jovi

Tekst piosenki i chwyty na gitarę

  • Chwyty na gitarę rossi
    9 ulubionych



E|----a 0---e ----G0---C0---F1------------------|
B|----1---0---2---1---1------------------|
G|----2---0---0---0---2------------------|
D|----2---2---0---2---3------------------|
A|----0---2---2---3---3------------------|
E|--------0---3---0---1------------------|






Intro

E|--------------1-0---------------------|
B|----1-------5-----1--1----1--0--------|
G|*---2-----5----------2----------2----*|
D|*---2--/7------------3---------------*|
A|--------------------------------------|
E|--------------------------------------|


a This ain't a sone g for the Gbroken hearted

A sa ilent prayer foe r faith deGparted

I aa in't gonna be e just a face in the crowd

You're gonCna hear my voiGce when a I shout it out loud







(Chorus)

It's a my lifFe, it's now orC never

I ain't gonnGa live fa orever

I just waFnt to liveC whene I'mG alive

It's a my life; my heFart is liCke an open highway

Like franky said IG dia d it my way,

I just wannFa live whee n I'm alive

e It's Gmy lCife


E|----------1-0--------------------|
B|--------5-----1--1----1--0-------|
G|------5----------2----------2----|
D|---/7------------3---------------|
A|---------------------------------|
E|---------------------------------|






a This is for onee s who stood thGeir ground

Like Ta ommy and Gine a, never bGacked down

a Tomorrow's getting Charder make no mistake

e Luck ain't even lucGky got to a make your own breaks







(Chorus)

It's a my lifFe, it's now orC never

I ain't gonnGa live fa orever

I just waFnt to liveC whene I'mG alive

It's a my life; my heFart is liCke an open highway

Like franky said IG dia d it my way,

I just wannFa live whee n I'm alive

e It's Gmy lCife






(Bridge)

You beGtter stand tall whenC they're calling you out

Don't ba end don't breae k baby Gdon't back down







(Chorus)

It's a my lifFe, it's now orC never

I ain't gonnGa live fa orever

I just waFnt to liveC whene I'mG alive

It's a my life; my heFart is liCke an open highway

Like franky said IG dia d it my way,

I just wannFa live whee n I'm alive

e It's Gmy lCife


E|----------1-0---------------1-0-------------|
B|--------5-----1-----------5-----1-----1-----|
G|------5---------2-------5-------------2-----|
D|---/7----------------/7---------------2-----|
A|--------------------------------------------|
E|--------------------------------------------|


Oceń to opracowanie
Ocena czytelników: Dobry 4 głosy
Kontrybucje:
rossi
rossi
anonim
  • Marcin
    Azrael
    brzmi Fatalnie... wogóle nie pod dźwięk z muzyki...
    · Zgłoś · 7 lat temu

Aktualności Jon Bon Jovi