Popraw Opracowanie
Transponuj
0

S.O.S Jonas Brothers

Tekst piosenki i chwyty na gitarę

 figured out this song quickly, so its pretty easy to play.
1.
  e|------------------------------------------|
  B|------------------------------------------|
  G|-----------------5--5--3b-----------------|
  D|-----5----5-------------------------------|
  A|------------2/3---------------------------|
  E|---3----3---------------------------------|
            (intro)

2.e|------------------------------------------|
  B|------------------------------------------|
  G|-----------------5--5--3b-----------------|
  D|-----5----5-------------------------------|
  A|------------2/3---------------------------|
  E|---3----3---------------------------------|
             ( first verse)
     (Told you I made dinner plans....)
  2nd part(So this is where the story ends

  e|------------------------------------------|
  B|------------------------------------------|
  G|-----------------5--5--3h4-or-3/4---------|
  D|-----5----5-------------------------------|
  A|------------2/3---------------------------|
  E|---3----3---------------------------------|
          (You and me and no one else..)
      2nd part(A conversation on IM)

  e|------------------------------------------|
  B|------------------------------------------|
  G|-----------------5--5--3b-----------------|
  D|-----5----5-------------------------------|
  A|------------2/3---------------------------|
  E|---3----3---------------------------------|
      (That don't include your crazy friends)
   (For the second time you come here skip this part and go to three)

3.
  e|----------------------------------------------|
  B|----------------------------------------------|
  G|------------------7----7----------------------|
  D|-----2----2-------------------7----7----------|
  A|--------------4/5---5-------------------------|
  E|---0----0-----------------4/5----5-----4/5----|
             (Well I'm done...)
       (With awkward situations empty, conversations)

 ~CHORUS~
 STRUM   (Ooo This is an SOS don't wanna second guess)
e|-----------------------------------------------------|
B|-----------------------------------------------------|
G|--9------------5---------------------------7---------|
D|--9------------5--------------5------------7---------|
A|--7------------3--------------5------------5---------|
E|------------------------------3----------------------|x2

       (And i can't find the other half)
e|-----------------------------------------------------|
B|-----------------------------------------------------|
G|---------------5-------------------------------------|
D|--7------------5--------------5------------7---------|
A|--7------------3--------------5------------7---------|
E|--5---------------------------3------------5---------|

 (It's a call I'll never get) Go back to sections 2,and 3.
 e|-----------------|
 B|-----------------|
 G|------------5----|
 D|--7---------5----|
 A|--7---------3----|
 E|--5--------------|


  The added part to the chorus:
  (dont play this part until you did the intro the second time)
    (Next time I see you, im giving you a high five)
e|-------------------------------------------------------|
B|-------------------------------------------------------|
G|--------------------------7----------------------------|
D|----------5---------------7----------------7-----------|
A|----------5---------------5----------------7-----------|
E|----------3--------------------------------5-----------|


('Cause hugs are over rated, just FYI)
e|-------------|
B|-------------|
G|--5-------7--|
D|--5-------7--|
A|--3-------5--|
E|-------------|

Oceń to opracowanie
Ocena czytelników: Fatalny 1 głos

Kontrybucje

Współpraca

W wiki-śpiewniku Wywroty możesz poprawiać istniejące opracowania i zdobywać punkty karmy. Zapoznaj się z zasadami kontrybucji.
anonim
Znaleziono 2 komentarze.
  • Anka
    Anka 8 lat temu

    dobre, a chwyty masz może?
    Bardziej mi chodzi o chwyty.

  • Tomek
    Tomek 8 lat temu

    dobre tylko o co chodzi z tym 3b