0
0

This Time (wer 2) jonathan Rhys Meyers

Tekst piosenki i chwyty na gitarę

  • Chwyty na gitarę skoffka
ta wersja This Time z chwytami (ang) Dsus2: x00230
Gmaj7: 32440x
Em7: 020000
G6: 355400
Bm7add4:7x7700
Aadd9: 577600


Dsus2 Gmaj7 (4)

Dsus2 Tonight G7+ the sky aboveDsus2       G7+      
Dsus2 Reminds me G7+ how to loveDsus2     
e7 Dsus2 G7+
WG7+ alking through wintertime, the stars all shine
Dsus2 The angel G7+ on the stairDsus2s      G7+      
Dsus2 Will tellG7+ you I was theDsus2re   
Under the e7 front porch light
On the mDsus2istery night


Intro to chorus:
e|----0----0------0----0-----0---------------------------|
B|----0----0------0----0-----0------12+-----7+-----------|
G|----0----0------0----0-----0------12+-----7+-----------|
D|----0----0------0----0-----0------12+-----7+-----------|
A|----2----2------4----4-----5------12+-----7+-----------|
E|----0----0------2----2-----3---------------------------|


Chorus:
I’ve been G6sitting, watching life pass from the sDsus2idelines
Been G6waiting for a dream to seep in te7 hrough my blinds
I wG6ondered what might happen if I b7add4 left this all behind
Would the Aadd9wind be at my back
Could I gG6et you off my mind
Dsus2 Gmaj7 (4)
This time

Dsus2 The neonG7+ lights and barDsus2s      G7+      
Dsus2 And headligG7+ hts from the carDsus2s    
Started a se7 ymphony surrDsus2ounding meG7+        Dsus2       G7+      
Dsus2 The thingG7+ s I left behinDsus2d      G7+      
Dsus2 Have melG7+ ted in my minDsus2d    
And now there’s a e7 purity insDsus2ide of me

(intro to chorus)...

Chorus:
I’ve been G6sitting, watching life pass from the sDsus2idelines
Been G6waiting for a dream to seep in te7 hrough my blinds
I wG6ondered what might happen if I b7add4 left this all behind
Would the Aadd9wind be at my back
Could I gG6et you off my mind
G6 e7 G6 e7 G6 e7
Tb7add4 his time Aadd9     


I’ve been G6sitting, watching life pass from the sDsus2idelines
Been G6waiting for a dream to seep in te7 hrough my blinds
I wG6ondered what might happen if I b7add4 left this all behind
Would the Aadd9wind be at my back
Could I gG6et you off my mind
Dsus2 G7+ Dsus2 G7+ Dsus2
TDsus2his time


Oceń to opracowanie
Kontrybucje:
skoffka
skoffka
anonim
  • skoffka
    wkradła mi się tam pomyłka bodajże :
    e|----0----0------2----2-----0---------------------------|
    B|----0----0------2----2-----0------7+-----12+-----------|
    G|----0----0------2----2-----0------7+-----12+-----------|
    D|----0----0------2----2-----0------7+-----12+-----------|
    A|----2----2------4----4-----5------7+-----12+-----------|
    E|----0----0------2----2-----3---------------------------|
    · Zgłoś · 13 lat temu