0
0

Zawsze tam gdzie ty Lady Pank

Wstęp:
E||--0---------------------|--0--------------------------|---------3---x-x-x-|
H||--1------1--1--3--1--0--|--1------3/-5--3h5p3--------|---------3---x-x-x-|
G||--0------0--0--0--0--0--|--2--------------------5--4--|--4------4---x-x-x-|
D||--2------2--2-----------|--2--------------------------|--5----------x-x-x-|
A||--3---------------------|--0-------------------------|--5----------x-x-x-|
E||------------------------|----------------------------|--3----------x-x-x-|



E||-------------------------------------||
H||-8h10p8--------------------------||
G||-------------7h9p7----------7-9------||
D||------------------------10---------||
A||----------------------------------||
E||---------------------------------||

Zwrotka:
E||---------------------|---------------------|---------------------|
H||--------1---------1--|--------1---------1--|--------1---------1--|
G||-----0---------0-----|-----0---------0-----|-----0---------0-----|
D||---------------------|---------------------|---------------------|
A||-3----------3--------|-0----------0--------|---------------------|
E||---------------------|---------------------|-3----------3--------|


E||-----------------------||
H||--------1-----------1--||
G||-----0------0----0-----||
D||--------------3--------|| x4
A||-3----------------------||
E||-----------------------||

Refren:
E||-1---1-1-1-------|-3---3-3-3---------|---------------|-0----------||
H||-1---1-1-1-----1-|-3---3-3-3---------|--1--1-1-----1-|-1--3-1-0-1-||
G||-2---2-2-2--x--2-|-4---4-4-4--x------|--0--0-0--x--0-|-2--2-2-2-2-||
D||-3---3-3-3--x--3-|-5---5-5-5--x------|--2--2-2--x--2-|-2--2-2-2-2-||
A||-3---3-3-3--x--3-|-5---5-5-5--x--0-2-|3-3--3-3--x----|-0------0---||
e||-1---1-1-1--x--1-|-3---3-3-3--x-------|-----------------|-------------|\
\\\

E||-------------------------------------||
H||-8h10p8--------------------------||
G||-------------7h9p7----------7-9------||
D||------------------------10---------||
A||----------------------------------||
E||---------------------------------||
po tym riff z 1 zwrotki a w tle akordy C a GG
\\\solo|

C a F G
|-0---------3-|-----------|--------3--|----------|
|-1---0--1----|--0--1-----|--0--1-----|--0--1--1-|
|-0-----------|--------2--|-----------|----------|
|-2-----------|-----------|-----------|----------|
|-3-----------|-----------|-----------|----------|
|-------------|-----------|-----------|----------|

C a F G C
|--------3--|------------|----------|-------|------|
|--0--1-----|---0--1-----|--0--1----|-------|------|
|-----------|---------2--|--------0-|--(0)--|------|
|-----------|------------|----------|-------|------|
|-----------|------------|----------|-------|------|
|-----------|------------|----------|-------|-------|
\\\\\\\\\\tekst
\\
Zamienię każdy oddech w niespokojny wiatr
By zabrał mnie z powrotem - tam, gdzie masz swój świat
Poskładam wszystkie szepty w jeden ciepły krzyk
Żeby znalazł cię aż tam, gdzie pochowałaś sny

Już teraz wiem, że dni są tylko po to,
by do ciebie wracać każdą nocą złotą
Nie znam słów, co mają jakiś większy sens
Jeśli tylko jedno - jedno tylko wiem:
Być tam, zawsze tam, gdzie ty

Nie pytaj mnie o jutro - to za tysiąc lat
Płyniemy białą łódką w niezbadany czas
Poskładam nasze szepty w jeden ciepły krzyk
By już nie uciekły nam, by wysuszyły łzy

Już teraz wiem, że dni są tylko po to,
by do ciebie wracać każdą nocą złotą
Nie znam słów, co mają jakiś większy sens
Jeśli tylko jedno - jedno tylko wiem:
Być tam, zawsze tam, gdzie ty

Już teraz wiem, że dni są tylko po to,
by do ciebie wracać każdą nocą złotą
Nie znam słów, co mają jakiś większy sens
Jeśli tylko jedno - jedno tylko wiem:
Być tam, zawsze tam, gdzie ty

Budzić się i chodzić, spać we własnym niebie
Być tam, zawsze tam, gdzie ty
Żegnać się co świt i wracać znów do ciebie
Być tam, zawsze tam, gdzie ty
Budzić się i chodzić, spać we własnym niebie
Być tam, zawsze tam, gdzie ty


Oceń to opracowanie
Ocena czytelników: Dobry 14 głosów
Kontrybucje:
marcint1988
marcint1988
anonim
  • Marcin
    javierski
    Do Tacy sami i Zostawcie titanica to akurat Grzegorz Ciechowski
    · Zgłoś · 2 lata temu
  • Marcin
    janusz z bobolic
    jeste vaperem
    · Zgłoś · 3 lata temu
  • Marcin
    Wiki
    Zamiast pisać "gram to inaczej" podajcie swoje wersję!
    · Zgłoś · 6 lat temu
  • kuba1
    ja gram inaczej
    · Zgłoś · 10 lat temu
  • trojan
    Słowa do niej napisał Jacek Skubikowski jakby ktos chciał wiedziec. Napisał jeszcze '' Tacy sami'', i ''zostawcie titanica''
    · Zgłoś · 10 lat temu
  • Kasia
    Tak czy siak śliczna jest ta piosenka
    · Zgłoś · 11 lat temu
  • Kaśunia
    Ja gram inaczej ale to też może być ;p
    · Zgłoś · 11 lat temu