0
0

Otto Pilotto Lenny Valentino

Tekst piosenki i chwyty na gitarę

  • Chwyty na gitarę 0dludeq
    1 ocena
D h G D



D

-----5-------5---------5-------5---

-------7-------7---------7-------7-

-----------------------------------

-0-0-------0-------0-0-------0-----

-----------------------------------

-----------------------------------



h

-----7-------7---------7-------7---

-------7-------7---------7-------7-

-----------------------------------

-0-0-------0-------0-0-------0-----

-----------------------------------

-----------------------------------



G

-----7-------7---------7-------7---

-------8-------8---------8-------8-

-----------------------------------

-0-0-------0-------0-0-------0-----

-----------------------------------

-----------------------------------



D

-----5-------5---------5-------5---

-------7-------7---------7-------7-

-----------------------------------

-0-0-------0-------0-0-------0-----

-----------------------------------

-----------------------------------


Oceń to opracowanie
Ocena czytelników: Doskonały 1 głos
Kontrybucje:
0dludeq
0dludeq
anonim