Mission Impossible Limp Bizkit


e ------------------------------------------------------------------
h ------------------------------------------------------------------ mozna
g ------------------------------------------------------------------ do
d ---------0-0-0-00--3----5-----0-0-0-00---------------------------- znudzenia
a --------------------------------------3---4-----------------------
e ------------------------------------------------------------------

riff:

----------------------------------------------------------------------
----------------------------------------------------------------------
----------------------------------------------------------------------
----------0-0-0-0----3----5-----0-0-0-0-------------------------------
----------------------------------------3---4-------------------------
----------------------------------------------------------------------

riff 2:

-----------------------------------------------------------------------
-----------------------------------------------------------------------
-----------------------------------------------------------------------
---------------0-0---3----5----0-0-------------------------------------
-----------------------------------3----4------------------------------
-----------------------------------------------------------------------


Oceń to opracowanie
Ocena czytelników: Dobry 8 głosów
Kontrybucje:
speedy1354
speedy1354
anonim