And One Linkin Park

Author/Artist: Linkin Park
Title: And One
Album: Hybrid Theory EP
Transcribed by: Mike Cook
Email: gcook2314@comcast.net

Tuning: Dropped D one half step down
Cis Gis Cis Fis B Dis

[Intro and verse]
-|--------------------------------------------------------------------------|-
-|--------------------------------------------------------------------------|-
-|--------------------------------------------------------------------------|-
-|--------------------------------------------------------------------------|-
-|---------------*7---------------*12---------------*7----------------------|-
-|-00-0-088-8-88----00-0-088-8-88-----00-0-088-8-88----00-0-088-8-88--------|-
Play 4 times

[Chorus]
-|--------------------------------------------------------------------------|-
-|--------------------------------------------------------------------------|-
-|----------------------10--10-10-1010--------------------------------------|-
-|-0--0-00--0-0-008--8-810--10-10-1010--3--3-33--3-3-33--1--1-11--1-1-11--|-
-|-0--0-00--0-0-008--8-88---8--8--8-8---3--3-33--3-3-33--1--1-11--1-1-11--|-
-|-0--0-00--0-0-008--8-88---8--8--8-8---3--3-33--3-3-33--1--1-11--1-1-11--|-


[Verse]
-|--------------------------------------------------------------------------|-
-|--------------------------------------------------------------------------|-
-|--------------------------------------------------------------------------|-
-|--------------------------------------------------------------------------|-
-|---------------*7---------------*12---------------*7----------------------|-
-|-00-0-088-8-88----00-0-088-8-88-----00-0-088-8-88----00-0-088-8-88--------|-

[Verse]
-|--------------------------------------------------------------------------|-
-|--------------------------------------------------------------------------|-
-|-*7------------------------------*12--------------------------------------|-
-|-----------------*7-------------------------------*12---------------------|-
-|--------------------------------------------------------------------------|-
-|----00-0-088-8-88---00-0-088-8-88----00-0-088-8-88----00-0-088-8-88-------|-

[Chorus]
-|--------------------------------------------------------------------------|-
-|--------------------------------------------------------------------------|-
-|----------------------10--10-10-1010--------------------------------------|-
-|-0--0-00--0-0-008--8-810--10-10-1010--3--3-33--3-3-33--1--1-11--1-1-11--|-
-|-0--0-00--0-0-008--8-88---8--8--8-8---3--3-33--3-3-33--1--1-11--1-1-11--|-
-|-0--0-00--0-0-008--8-88---8--8--8-8---3--3-33--3-3-33--1--1-11--1-1-11--|-
Play Twice

[Bridge] Clean
-|--------------------------------------------------------------------------|-
-|--------6---5-----------3---1---------------------------------------------|-
-|-------------------------------------------0------------------0-----------|-
-|-0----0---0---0---0---3---3---3---3-----3-----3---3-------2-----2---2-----|-
-|-0--------------0---1-----------1-----3---3-----3-------3---3-----3-------|-
-|-0--0-------------------------------3-----------------2-------------------|-
^
this rings

[Bridge] Clean
-|--------------------------------------------------------------------------|-
-|-----6---5-----------3---1------------------------------------------------|-
-|----------------------------------------0------------------0--------------|-
-|---0---0---0---0---3---3---3---3-----3-----3---3-------2-----2---2--------|-
-|-------------0---1-----------1-----3---3-----3-------3---3-----3----------|-
-|-0-------------------------------3-----------------2----------------------|-

[Bridge] Clean
-|--------------------------------------------------------------------------|-
-|-----6---5h6-5-------3---1------------------------------------------------|-
-|-----------------------------------------0-----------------0--------------|-
-|---0---0---0---0---3---3---3---3-----3-----3---3-------2-----2---2--------|-
-|-------------0---1-----------1-----3---3-----3-------3---3-----3----------|-
-|-0------------------------------3-----------------2-----------------------|-

[Bridge] Clean
-|--------------------------------------------------------------------------|-
-|-----6---5h6-5-------3---1------------------------------------------------|-
-|-----------------------------------------0-----------------3---3-2--------|-
-|---0---0---0---0---3---3---3---3-----3-----3---3-------2-----2---0--------|-
-|---------0-------1-----------1-----3---3-----3-------3---3-----3----------|-
-|-0-------------------------------3-----------------2---------------0------|-

[Verse]
-|--------------------------------------------------------------------------|-
-|--------------------------------------------------------------------------|-
-|--------------------------------------------------------------------------|-
-|--------------------------------------------------------------------------|-
-|---------------*7---------------*12---------------*7----------------------|-
-|-00-0-088-8-88----00-0-088-8-88-----00-0-088-8-88----00-0-088-8-88--------|-

[Verse]
-|--------------------------------------------------------------------------|-
-|--------------------------------------------------------------------------|-
-|-*7------------------------------*12--------------------------------------|-
-|-----------------*7-------------------------------*12---------------------|-
-|--------------------------------------------------------------------------|-
-|----00-0-088-8-88---00-0-088-8-88----00-0-088-8-88----00-0-088-8-88-------|-

[Chorus]
-|--------------------------------------------------------------------------|-
-|--------------------------------------------------------------------------|-
-|----------------------10--10-10-1010--------------------------------------|-
-|-0--0-00--0-0-008--8-810--10-10-1010--3--3-33--3-3-33--1--1-11--1-1-11--|-
-|-0--0-00--0-0-008--8-88---8--8--8-8---3--3-33--3-3-33--1--1-11--1-1-11--|-
-|-0--0-00--0-0-008--8-88---8--8--8-8---3--3-33--3-3-33--1--1-11--1-1-11--|-
Play Twice

[Breakdown]
-|--------------|--------|--------------------------------------------------|-
-|--------------|--------|--------------------------------------------------|-
-|--------------|--------|--------------------------------------------------|-
-|-------3-3----|----0---|--------------------------------------------------|-
-|-00-0--3-3----|-00-0---|--------------------------------------------------|-
-|-00-0--3-3-*5-|-00-0---|--------------------------------------------------|-
PM.. PM
Play 3 times

[Outro Verse]
-|--------------------------------------------------------------------------|-
-|--------------------------------------------------------------------------|-
-|--------------------------------------------------------------------------|-
-|--------------------------------------------------------------------------|-
-|--------------------------------------------------------------------------|-
-|-00-0-033-3-33-*2.7-00-0-033-3-33-*2.3-00-0-033-3-33-*2.7-00-0-033-3-33---|-
PM........... PM........... PM........... PM...........
once

[Outro Verse]
-|--------------------------------------------------------------------------|-
-|--------------------------------------------------------------------------|-
-|--------------------------------------------------------------------------|-
-|--------------------------------------------------------------------------|-
-|--------------------------------------------------------------------------|-
-|00-0-033-3-33-*2.7-00-0-033-3-33-*2.3-00-0-033-3-33-*2.7-00-0-033-3-33-*2.3|
PM........... PM........... PM........... PM...........

[Outro Verse]
-|--------------------------------------------------------------------------|-
-|--------------------------------------------------------------------------|-
-|--------------------------------------------------------------------------|-
-|--------------------------------------------------------------------------|-
-|--------------------------------------------------------------------------|-
-|-00-0-033-3-33-*2.7-00-0-033-3-33-*2.3-00-0-033-3-33-*2.7-00-0-033-3-33---|-
PM........... PM........... PM........... PM.........


Oceń to opracowanie
Kontrybucje:
Kurt Cobain
Kurt Cobain
anonim