0
0

Burning in the Skies Linkin Park

Tekst piosenki i chwyty na gitarę

  • Chwyty na gitarę Yngwie Malmsteen
    1 ulubiony
Wstęp gra najpierw samo pianino
takie akordy : a C G D
e|-------------0-0-x-x
H|-------------1-1-3-3
G|-------------2-0-4-2
D|-------------x-x-5-4
Potem wchodzi gitara :
aG|C--G--D---------|-----0-2-0---|-------------|-------------|
D|-3-3-2-0-2-0-|-3-3-------3-|-2-2-0---0---|-------0---0-|
E|-------------|-------------|-------3---3-|-2-2-3---3---|
Ten riff powtarza się przez całą zwrotke,
Melodia zwrotki:
|:a |C |G | D :|D | 1 _______ 2______
e|:--------------------|-------|--------------------|----------:|-----------|
H|:--------------------|-------|--------------------|----------:|-----------|
G|:------------------4-|-------|--------------------|----------:|-----------|
D|:-7-7-7-7-7-7-7-7----|-5~~~--|-5-5-5-5-5--5-5-5-7-|-4--------:|--4--5--7~-|
A|:--------------------|-------|--------------------|-----7-5~-:|-----------|
E|:--------------------|-------|--------------------|----------:|-----------|
I used... rise... the blood... skie-e-s... debri-i-is...
I filed... sea... and poured...

Melodia Refrenu:
a |C |D |a |C |G |D |a |
e|-----|-----|----------|-------|----------|--------|----------|-----------|
H|-----|-----|----------|-------|----------|--------|----------|-----------|
G|-----|-----|-9~-7-7---|9~-----|-9--9-9-7-|7~------|--9--9-9-7|7~-------7-|
D|-7~~-|(7)~-|-------10-|-------|----------|--------|7---------|----7-10---|
A|-----|-----|----------|-------|----------|--------|----------|-----------|
E|-----|-----|----------|-------|----------|--------|----------|-----------|
Oh... I'm ... Smoke... Of... Burned... So dont... I'm...

C |G |D |a |
e|----------|-------|---------|------|
H|----------|-------|---------|------|
G|-9--9-9--7|7~-----|9~-7-7---|------|
D|----------|-------|-------10|-7~~~-|
A|----------|-------|---------|------|
E|----------|-------|---------|------|
what... what...
|a |C |
I used the deadwood to make the fire rise
|G | D |
The blood of innocence burning in the skies
|a |C |
I filled my cup with the rising of the sea
|G | D |
And poured it out in an ocean of debris
|a | C |
Oh
|D |a |
I'm swimming in the smoke
|C | G |
Of bridges I have burned
|D |a
So don't apologize
a | C | G |
I'm losing what I don't deserve
|D | a |C |G |D |
What I don't deserve.
aWeC held our breath when the clouds began to form
GBuDt you were lost in the beating of the storm
aAncd in the end we were made to be apart
GLiDke separate chambers of the human heart
aNoCoo

|D | a
I'm swimming in the smoke
|C |G
Of bridges I have burned
|D a
So don't apologize
|a | C |G
I'm losing what I don't deserve
|D | a
It's in the blackened bones
|C |G
Of bridges I have burned
|D |a
So don't apologize
|a |C | G
I'm losing what I don't deserve
|D |a
What I don't deserve
Solo dodam za kilka dni
|D |a |
I'm swimming in the smoke
|C |G |
Of bridges I have burned
|D |a
So don't apologize
a | C |G |
I'm losing what I don't deserve
|D |a |
The blame is mine alone
|C |G |
For bridges I have burned
|D |a
So don't apologize
a |C |G
I'm losing what I don't deserve
|D |a |C | G |
What I don't deserve - e-e - e
e|-----------------|---|-------|----
H|-----------------|---|-------|----
G|-9~--9---7-------|-9~|~~10-9-|-7~~
D|-------------10--|---|-------|----
A|-----------------|---|-------|----
E|-----------------|---|-------|----
|D |a |c | G |
What I don't deserve - e - e
e|-----------------|--------|------|------
H|-----------------|--------|------|------
G|-9~--9---7-------|-9~~-10-|9~~---|-7-7~~
D|-------------10--|--------|------|------
A|-----------------|--------|------|------
E|-----------------|--------|------|------
|D |a
What I don't deserve
e|-----------------|---
H|-----------------|---
G|-9~--9---7-------|---
D|-------------10--|-7~
A|-----------------|---
E|-----------------|---
aI Cused the deadwood to make the fire rise
GThDe blood of innocence burning in the skies



Oceń to opracowanie
Ocena czytelników: Doskonały 1 głos
Kontrybucje:
Yngwie Malmsteen
Yngwie Malmsteen
anonim