0
0

With You Linkin Park

SONG: With You
BAND: Linkin Park
ALBUM: Hybrid Theory
TRANSCRIBED BY: Daniel Height (todnh@hotmail.com)
DATE: 13.12, 2000

--------------------------------------------


TUNING: drop d and down 1.5 steps (B,F#,B,E,G#,C#)


* = Harmonic


INTRO: (bass part for guitar)

-----------------------
-----------------------
-----------------------
-----------------------
-----------------------
-5-5---5-5---5-5---5-5-

VERSE:

--------------------------------
--------------------------------
--------------------------------
-0--0-0-1---0-0---0---0-0-0-----
-0--0-0-1---0-0---0---0-0-0-----
-0--0-0-1---0-0---0---0-0-0--*3-
pm........................

CHORUS:

---------------------
---------------------
-7-----7----10-----5-
-5-----x-----8-----3-
-5-----5-----8-----3-
-5-----0-----8-----3-


Oceń to opracowanie
Kontrybucje:
s314ryt
s314ryt
radecek
radecek
anonim
  • Kacper
    Buuuuuuuu
    O co w tym chodzi ?????????????/
    · Zgłoś · 16 lat temu