0
0

risk everything Lobotomia

Tekst piosenki i chwyty na gitarę

  • Chwyty na gitarę Wąski
    1 ocena
wstęp:


|-----x----------------------------------------x------------------------------------
|-----x----------------------------------------x------------------------------------
|-----x----------------------------------------x------------------------------------ X3
|-----5----7----7--7----7--7--7------------5----7----7--7----7--7--7--------
|-----0----------------------------------------0------------------------------------
|-----x----------------------------------------x------------------------------------

|-----7----7----7----7-----7--5--3--2--------------
|-----9----9----9----9-----9--7--5--4--------------
|-----9----9----9----9-----9--7--5--4--------------
|-----9----9----9----9-----9--7--5--4--------------
|-----7----7----7----7-----7--5--3--2--------------
|-----7----7----7----7-----7--5--3--2--------------




nie ma co się martwić, zwątpienia wokół szerzyć a a
nie ma czasu na myślenie, życie trzeba przeżyć a E
Nie ma co narzekać, głowy swojej spuszczać a a
bo życie jest za krótkie, by sobie odpuszczać a E
przyj ciągle do przodu i tylko do przodu a a
nie można przecież płakać, stale bez powodu a E


Ref x2
Kto nie ryzykuje ten nie żyje C G a a
szampana zwycięstwa nigdy nie wypije C G a a
przeżyj życie poprawnie C G a a
nie chcesz przecież skończyć na dnie C G E E

Nie zadawaj pytań i nie planuj jutra
Żyj teraźniejszością, przyszłość jest okrutna
Nie patrz się za siebie, przeszłość to też kłopot
Ile razy przez nią, okazja przeszła obok?
karty które trzymasz muszą Ci wystarczyć
Podejdź więc do stołu, by o szczęście swe zawalczyć

Ref Kto nie ryzykuje ten nie żyje
szampana zwycięstwa nigdy nie wypije
przeżyj życie poprawnie
nie chcesz przecież skończyć na dnie

zakończenie
| C | G | E | E D C H | A |


|-----7----7----7----7-----7--5--3--2--0------------
|-----9----9----9----9-----9--7--5--4--2------------
|-----9----9----9----9-----9--7--5--4--2------------
|-----9----9----9----9-----9--7--5--4--2------------
|-----7----7----7----7-----7--5--3--2--0------------
|-----7----7----7----7-----7--5--3--2--0------------



Oceń to opracowanie
Ocena czytelników: Doskonały 1 głos
Kontrybucje:
Wąski
Wąski
anonim